SOUNDGARDEN

Nazi Driver

Dropped D tuning.

Riff 1:

E||-------------------------------||
B||-------------------------------||
G||-------------------------------||
D||-------------------------------||
A||-------------------------------||
D||--7--4-7--4-7-4-7--4-7--4-7-4--||
Riff 2: This is Riff 1 played palm muted and with fifths.

Riff 3:

E||---------------------------------------------------------------------||
B||---------------------------------------------------------------------||
G||---------------------------------------------------------------------||
D||--9--7-9--7-9-7-9--7-9--7-9-7-9--7-9--7-9-7-10-10-10-10-10-10-10-10--||
A||--9--7-9--7-9-7-9--7-9--7-9-7-9--7-9--7-9-7-10-10-10-10-10-10-10-10--||
D||--9--7-7--7-9-7-9--7-9--7-9-7-9--7-9--7-9-7-10-10-10-10-10-10-10-10--||
Riff 4:
E||----------------------||
B||------5-------5/6--5--||
G||---------7-5----------||
D||--5h7-----------------||
A||----------------------||
D||----------------------||
#h# means hammer on the string and #/# means to slide.

Occasional Riff:

E||---------------||
B||---------------||
G||--4h5p4-5b-4b--||
D||---------------||
A||---------------||
D||---------------||
The Occasional Riff is played near the end of Riff 1 and Riff 2 by another guitar.

The song structure is as follows:

Sent by Winston Campbell (jieuryli@eden.rutgers.edu). Modified by Northcut.

Andreworks & Co. (HAPA).