SOUNDGARDEN

Head Injury

Standard tuning.
Part 1
G|--------------------------------
D|-3---3--3---3--3---3---3--------
A|-0h1-1--0h1-1--0h1-0h1-0h1--3-3-
E|-0---0--0---0--0---0---0----1-1-

Play that four times, then play:

Part 2
D|-----------------------
A|-7/8--7/8--7/8--7/8--5-
E|-5/6--5/6--5/6--5/6--3-

Play that 8 times then play this:

Part 3
D|-----------------------
A|----------5--6--8--10--
E|-5--6--8--------6--8---

After that, you repeat parts 1, 2 and 3.  Then play part 1 again, and
part 2 twice, the first time plam muted.  Play part 3 again and then
play this chord:

G|---
D|-7-
A|-5-
E|---

And then launch into this:

Part 4
G|-----------------------------------
D|-7/8--8--7/8--8--7/8--8--7/8----7~-
A|-5/6--6--5/6--6--5/6--6--5/6--6----
E|-----------------------------------

Play that eight times, then end with this part:

Part 5
D|-----------
A|-8--10--7\-
E|-6--8---5\-
There you go. It's a quick one so be careful. There are a few notes there in parts 3 and 6 that you can barely hear, so I bet you could skip over them and no one would notice, but that's the way I got it. Once again, this was figured out by Steve Lynch and I just wrote it down and stole all the credit.

Sent by Laurie Casey (kcasey@wizards.net).