SOUNDGARDEN

He Didn't

Harmonics Intro:
     1 + + 2 + + 3 + + 4 + + 5 + + 6 + + 7 + + 8 + +
 E -------------------------(7)----------------------
 B -------------------(7)---------(7)----------------
 G -(7)---------(5)---------------------(5)----------
 D --------------------------------------------------
 A -------(9)---------------------------------(9)----
 E --------------------------------------------------
Main Riff:
     1   +   2   +   3   +   1   +   2   +   3   +  
 E -------------------------------------------------
 B -------------------------------------------------
 G -------------------------------------------------
 D --7---8---7h8p7-----------7---8---7h8p7----------
 A --------------7---8---9---------------9---8---7--
 E -------------------------------------------------

     1   +   2   +   3   +   4   +   
 E ---------------------------------
 B ---------------------------------
 G ---------------------------------
 D ---------------------------------
 A ----------------------7---8---9--
 E --9---8---7---8---9--------------
Play it fast, and try to fit the 7h8p7 into half a beat so that the last 7 of the 7h8p7 ends before you pick 7 on the A string. Although they're written above one another, they're not played at the same time, if you know what I mean. Listen to the recording and all will become clear :) During the verse, play the riff with slight palm muting.

Sent by Greg O'Beirne (gobeirne@tartarus.uwa.edu.au).