SOUNDGARDEN

All Your Lies

Key of G.

Verse Rhythm:

 rhy fig 1
E||-------------------------5--||
B||-------------------------5--||
G||o------------------------2-o||
D||o--2-3-4-2-3-4-2-3-4-3-2-2-o||
A||---2-2-2-2-2-2-2-2-2-2-2-0--||
D||----------------------------||
Chorus Rhythm:
        rhy fig 2a  fig 2b
E||------------|-----------------||
B||------------|--2--5--8---7----||
G||o----2------|--4b-7b-10b-9b--o||
D||o--4-2-5-4--|----------------o||
A||---4-0-3-2--|-----------------||
E||---2--------|-----------------||
Play rhy 2: a&b together throughout the song.
E------------------------------|
B------------------------------|
G------------------------------|
D------------------------------|
A----5-------5---50-----5------|
D--7---7654-4-43----4-7---7654-|
Sent by Sam Rowe (elric@selway.umt.edu), modified by Northcut.

Andreworks & Co. (HAPA).