SOUNDGARDEN

Spoonman

Based on the Cherry Lane book. Dropped D tuning. Key of F.

Intro (7/4 time):

                                             Play 4 times
G||-------------------------------------------------------||
D||o--10h12-12-12-12---10-12-7--5-7-3-0--3h5-5-5--0-0-0--o||
A||o--10h12-12-12-12---10-12-7--5-7-3-0--3h5-5-5--0-0-0--o||
D||---10h12-12-12-12---10-12-7--5-7-3-0--3h5-5-5--0-0-0---||
For the verse play this riff and the intro one alternated twice:
G||----------------------------------||
D||--10h12-12-12-12---10-12-5--------||
A||--10h12-12-12-12---10-12-5--------||
D||--10h12-12-12-12---10-12-5--------||
Chorus:
G||------------------------------------||
D||o----------------------5p3---------o||
A||o--------------------------5p3-0---o||
D||---5p3-5p3-5p3-0--5-3---------------||
Intro: play four times
Verse: verse riff, intro riff, verse riff, intro riff twice
Chorus: chorus riff 4 times, intro riff twice

Andreworks & Co. (HAPA).