SOUNDGARDEN

My Wave

Tuning (low to high): E,E (down), B (down), B (up), B, B (down).
   G5  A5
B------------|---------------3-
B------------|---------------3-
B------------|---------------3-
B--3----5--5-|--3----5--5------ X 3
E--3----5--5-|--3----5--5------
E--3----5--5-|--3----5--5------    



B-------------------------
B-------------------------
B-------------------------
B--0----3----3----3--5--5- X 4
E--0----3----3----3--5--5-
E--0----3----3----3--5--5-


B-------------------------
B-------------------------
B--0----3----3----3--5--5-
B--0----3----3----3--5--5- X 4
E--0----3----3----3--5--5-
E--0----3----3----3--5--5-


B----------------2-p-0----
B----4-p-0-----0-------0--
B--5---------0------------
B------------------------- X 7
E-------------------------
E-------------------------


B---------------------------------------------------------2-p-0---
B--3----3--5-b-r(5)--3-------6--8-b-r(8)--6----4-p-0----0-------0-
B--3----3--5-b-r(5)--3-------6--8-b-r(8)--6--5--------0-----------
B--3----3--------------3/6---6------------------------------------
E--3----3--------------3/6---6------------------------------------
E--3----3--------------3/6---6------------------------------------


B------------0-2-p-0---0--10-10-10-10--10-----9-
B----4-p---0---------0----10-10-10-10--10-----9-
B--5-----0----------------10-10-10-10--10-----9-
B--------------------------5--5--5--5---5-----0-
E--------------------------5--5--5--5---5-----0-
E--------------------------5--5--5--5---5-----0-
Sent by Anthony Fitzpatrick (ffm@werple.apana.org.au).