SOUNDGARDEN

Limo Wreck

Based on Cherry Lane.

Tuning:

high E -> E
     B -> B
     G -> G
     D -> D
     A -> G
low  E -> C
Intro:
E-------------------------------------|-------------
B-------------------------------------|---------------
G-------5--------5-------5-------5----|--------------
D---------3-2------0-------3-2-----0--|-----------
G-----5-------5--------5-------5------|--------
C---0----------------0----------------|--------
Intro2:
          (h) = harmonics
E------------------------------------------------------------------|-------------
B------------------------------------------------------------------|---------------
G---------------12(h)------------5(h)-------0-----------0-------0--|--------------
D----------12(h)-------------5(h)---------5-----------0-------0----|------------
G-----12(h)--------------5(h)-----------5-----------0-------0------|--------
C--10------------------4--------------3----(3)/8--7-------7--------|--------
Verse:
E----------------------------------------------------------------------|-----
B----------------------------------------------------------------------|------
G-----------------------------------------------------------0-------0--|--------
D---------------------------------------------------------0-------0----|--------
G--7--------------7-4----3-/-7--------------7-4---------0-------0------|---------
C-------8----7--------------------8----7-----------8--7-------7--------|-----
Pre-Chorus:
Kim goes off here on the bends.. listen to the CD to get them right..
E-----------------------------------------------------------------|--------------
B--7(b)---7(b)---7(b)---7(b)---7(b)---7(b)---7(b)---7(b)---7(b)---|-----------
G--9(b)---9(b)---9(b)---9(b)---9(b)---9(b)---9(b)---9(b)---9(b)---|---------------
D-----------------------------------------------------------------|-------------
G-----------------------------------------------------------------|---------
C-----------------------------------------------------------------|-----------
Chorus:
E--------------------------------------------------|-----------------------------
B--------------------------------------------------|------------------------------
G--------------------------------------------------|-----------------------------
D---------4------4--2------------------------------|-------------------------
G--6------4------4--2------6--3----3----2----2-----|------------------------
C--6-----------------------6--3----3----2----2-----|------------------------
Sent by Jordan Snodgrass (jasnodgr@ucsd.edu).