SOUNDGARDEN

Kickstand

Dropped D tuning.
   Kickstand you...
G||--------------|-------------|-7--5-5-5--7-|-5--5-5-5-5--7-7--||
D||o-5--5--5-5-5-|-8--8--8-8-8-|-7--5-5-5--7-|-5--5-5-5-5--7-7-o||
A||o-5--5--5-5-5-|-8--8--8-8-8-|-5--5-5-5--5-|-5--5-5-5-5--5-5-o||
D||--5--5--5-5-5-|-8--8--8-8-8-|-------------|------------------||

G||-------------|-------------|-------------|-----------------||
D||-5--5--5-5-5-|-8--8--8-8-8-|-7--9-9-9--7-|-9--9-9-9-9--7-7-||
A||-5--5--5-5-5-|-8--8--8-8-8-|-7--7-7-7--7-|-7--7-7-7-7--7-7-||
D||-5--5--5-5-5-|-8--8--8-8-8-|-7--7-7-7--7-|-7--7-7-7-7--7-7-||

   My mother said...                                        So do it
G||-------------|------------------|-------------|------------------|
D||-5--5--5-5-5-|-10--10--10-10-10-|-7--7--7-7-7-|-10--10--10-10-10-|
A||-5--5--5-5-5-|-10--10--10-10-10-|-7--7--7-7-7-|-10--10--10-10-10-|
D||-5--5--5-5-5-|-10--10--10-10-10-|-7--7--7-7-7-|-10--10--10-10-10-|

   right!
G||--7--5-5-5-7-|-5--5-5-5-5-7-7--||
D||o-7--5-5-5-7-|-5--5-5-5-5-7-7-o||
A||o-5--5-5-5-5-|-5--5-5-5-5-5-5-o||
D||-------------|-----------------||

(Come stand me)
    UP!          Come stand me
G||-------------|------------|| -Riff 1-
D||o-12\-7-7-5--|--10-10-10-o||Play 3 times
A||o-12\-7-7-5--|--10-10-10-o||
D||--12\-7-7-5--|--10-10-10--||
Play the verse section again and the chorus as well ("Come stand me up"). Then the last part goes like this:
G||--------------|-------------|-----------------|----------------||
D||o-5--5--5-5-5-|-8--8--8-8-8-|------9h10p9---9-|---9h10p9---9--o||
A||o-5--5--5-5-5-|-8--8--8-8-8-|----8--------8---|-8--------8----o||
D||--5--5--5-5-5-|-8--8--8-8-8-|-0---------------|----------------||

G||--------------|-------------|
D||o-5--5--5-5-5-|-8--8--8-8-8-|
A||o-5--5--5-5-5-|-8--8--8-8-8-|
D||--5--5--5-5-5-|-8--8--8-8-8-|

                                  Play 3 times
B||-----------------|---------------10-10-10--||
G||-----------------|---------------10-10-10-o||
D||------9h10p9---9-|---9h10p9---9--9--9--9--o||
A||----8--------8---|-8--------8----8--8--8---||
D||-0---------------|
    ^Play that D only the first time

B||--10-10-10--10-10-10-|-------------||
G||--10-10-10--10-10-10-|-------------||
D||--9--9--9---9--9--9--|--12\--------||
A||--8--8--8---8--8--8--|--12\--------||
D||---------------------|--12\--------||
Andreworks & Co. (HAPA)