SOUNDGARDEN

Head Down

Tuning (low to high): CGCGGE

Intro riff:

       fig 1 
E||--1/2\1---0----1/2\1---0--|
G||--2/3\2---0----2/3\2---0--| 
G||--2/3\2---0----1/2\1---0--| 
C||--------0------------0----|
Riff 1:
E||--------------------------|------12--12-12-12-12--|
G||------12-10----10--10p12--|------12--12-12-12-12--|
G||o-----12-10----10--10p12--|------12--12-12-12-12--|
C||o-----------12------------|--10-------------------|
G||--------------------------|--10-------------------|
C||---0----------------------|--10-------------------|
                            Play 4 times
E||------8--8-----|----------------||-------------------||
G||--5-7-8--8--7--|----------------||-------------------||
G||--5-7-8--8--7--|---------------o||-------------------||
C||--5-5-5--5--5--|--8--10--8--7--o||--5-5-5-5-5-5-5-5--||
G||--5-5-5--5--5--|--8--10--8--7---||--5-5-5-5-5-5-5-5--||
C||---------------|--8--10--8--7---||--5-5-5-5-5-5-5-5--||
I see that smile...
    
G||----------------|---------------|---------------|
C||o--3--3--3-3-3--|--2--2--2-2-2--|--5--5--5-5-5--|
G||o--3--3--3-3-3--|--2--2--2-2-2--|--5--5--5-5-5--|
C||---3--3--3-3-3--|--2--2--2-2-2--|--5--5--5-5-5--|

        Play 2 times
G||-----------------||
C||--7/8---0--0-0--o||
G||--7/8---0--0-0--o||
C||--7/8---0--0-0---||
Bow down...
G||----------------|---------------|---------------|
C||o--8--8--8-8-8--|--7--7--7-7-7--|--5--5--5-5-5--|
G||o--8--8--8-8-8--|--7--7--7-7-7--|--5--5--5-5-5--|
C||---8--8--8-8-8--|--7--7--7-7-7--|--5--5--5-5-5--|

        Play 4 times
G||-----------------||
C||--3\2---0--0-0--o||
G||--3\2---0--0-0--o||
C||--3\2---0--0-0---||
After this, repeat it all from the begining. Then play the intro riff again and before ending it play:
                    Play 4 times
G||-----------------|-------------||
C||o--0-2-3--5-7-8--|--0--0-0-0--o||
G||o--0-2-3--5-7-8--|--0--0-0-0--o||
C||---0-2-3--5-7-8--|--0--0-0-0---|| 
Andreworks & Co. (HAPA)