SOUNDGARDEN

4th Of July

Key:

Tuning: Low E -> C; A -> F; D -> C. The first three strings are the same.

Intro:

                               Play 4 times        Shower...
G||------------------------------------------|--------------|
C||o---------------------------------------o-|--------------|
F||o--3---3--3------3--3--3-----2--2--2--2-o-|--2--2--2--2--|
C||---3---3--3--2~~~1--1--1--0--2--2--2--2---|--2--2--2--2--|
Verse:
  dark day....
G||-----------------------------------------------------------------|
C||-----------------------------------------------------------------|
F||--3---3--3------3--3---3-----2--2---2--2--5--5--5--4~~~3---3--3--|
C||--3---3--3--2~~~1--1---1--0--2--2---2--2--3--3--3------3---3--3--|

G||----------------------------------|
C||----------------------------------|
F||------3---3---3------2---2--2--2--|
C||--2~~~1---1---1---0--2---2--2--2--|
Chorus riff:
  wind,                 and I saw it ......
G||-------------------------------------------------------------|
C||-------------------------------------------------------------|
F||--5---5---5---4~~~--1---1-----1--------------------7P5--5~~~~|
C||--3---3---3---------1---1-----1-----2~~~--0----0-------------|

G||--------------------------------------------------------------------|
C||--------------------------------------------------------------------|
F||--7P5--7\5---5---5---5---4~~~1---1-----1--------------------7P5--5~~|
C||-------------3---3---3-------1---1-----1-----2~~~--0----0-----------|
Then riff b and into second verse, then riff c, and then:
  shovel load...
G||-----------------------------------|
C||-----------------------------------|
F||--2--------2--------2--------5b----|
C||--2--------2--------2--------------|
Then riff d:
G||----------------------|---------------------------------|
C||--2------2--2P0-------|---------------------------------|
F||--2------2--2P0--5----|-----------------------------5B--|
C||-----------------5----|----5--4----3B--3B--3B-----------|


                                 I thought it was the end...
G||----------------------|-----------------------------------|
C||---2------2--2P0------|-----------------------------------|
F||---2------2--2P0--5---|-----------------7B-----7B-----5B--|
C||------------------5---|-----5--4---3B---------------------|
The fill before the guitar solo:
 Fourth of July.....
G||----------------------|
C||----------------------|
F||---------7B--7~~~~~~~~|
C||--3-------------------|
The high part of the guitar solo:
E||-------------------------------23---23---23---23--20~~~~~--|
B||--22B-----20---23B~~~~-------------------------------------|
G||--------------------------22-------------------------------|
C||-----------------------------------------------------------|

E||---------------------------------------------------------------------------|
B||--22B-----20---23B~~~~----23P20----22B-------20^22P20--20-----20--22B--20--|
G||-----------------------------------------------------------22--------------|
C||---------------------------------------------------------------------------|

E||----------------------------------------------------------------------|
B||--22B-----20---23B~~~~-----------20--20---20----20---18---20---18\15--|
G||----------------------------------------------------------------------|
C||----------------------------------------------------------------------|

E||----------------------------------------------------------------------
B||------------------------------23--------------------------------------
G||--14B-----12------15B~~~~~~-------22B----20^22P20~~~~---22--20^22P20--
C||----------------------------------------------------------------------

                Oooh............
E||-----------------------------|
B||----------------11-----------|
G||--19~~~~19\------------------|
C||-----------------------------|
Do some more of the main riff after this then the outro part is just:
E||-------------------------------20------18-------------------
B||--22---------20---23~~~~~~~-----------------20~~~~~~~~------
G||------------------------------------------------------------
C||------------------------------------------------------------
Sent by vanguard@holly.colostate.edu.

Andreworks & Co. (HAPA)