SOUNDGARDEN

Toy Box

The plucking on this song is very intricate, and there are a lot of slight variations. They're pretty easy to pick up, so just listen to the cd to get it..

Normal tuning: EADGBE (low to high)

Intro: (4X)

E----------------------------------------|-------------
B----------------------------------------|---------------
G-------0-------0----------------0-------|--------------
D------2-2-----2-2--------------2-2------|-----------
G-----2-------2----------------2---------|--------
C--0-------1-------0--3--2--1------------|--------
Intro2: (1X)
E-----0---------------0-------------|-------------
B-----0---------------0-------------|---------------
G--0--0------------0--0-------------|--------------
D--2---------------2----------------|------------
G--2---------------2-----2--1--0----|--------
C--0------3--2--1--0----------------|--------


Verse: "Eyes to sun..."             "Brown, the meadow..."
E-----0--------------0-------------|-----0---------------0------------|-------------
B-----0--------------0-------------|-----0---------------0------------|---------------
G--0--0-----------0--0-------------|--0--0------------0--0------------|--------------
D--2--------------2----------------|--2---------------2---------------|------------
G--2-------2--1---2----------------|--2---------------2-----2--1--0---|--------
C--0-----3--2--1--0-----/3--2--1---|--0------3--2--1--0---------------|--------
Bridge: (1X)
E-----0(*)------------0-------------|-------------
B-----0(*)------------0-------------|---------------
G--0--0(*)---------0--0-------------|--------------
D--2---------------2----------------|------------
G--2--------2--1---2-----2--1--0----|--------
C--0------3--2--1--0----------------|--------
     * = on the CD it sounds like Kim messes up this chord..heh.
REPEAT Verse (1X) with slight variations.

Chorus:

E--0--0--0--1--1--1--0--/3--2--1--|--0--0--0--1--1--1--0--/3--2--1--|---
B--0--0--0--1--1--1--0--/3--2--1--|--0--0--0--1--1--1--0--/3--2--1--|--
G--1--1--1--2--2--2--1--/4--3--2--|--1--1--1--2--2--2--1--/4--3--2--|-
D---------------------------------|---------------------------------|----
G---------------------------------|---------------------------------|--
C---------------------------------|---------------------------------|--

E--0-----------0-----------0----------------------------------------
B--1-----------1-----------1----------------------------------------
G--2-----1-----2-----1-----2-----1------0----------------------------
D--2-----2-----2-----2-----2-----2------2----------------------------
G--------2-----------2-----------2------2----------------------------
C-------------------------------------------------------------------
REPEAT Verse.
REPEAT Chorus.

Breakdown (1X)

E-----------------------------------------------|---------------------
B-----------------------------------------------|-------------------
G-----------------------------------------------|---------------------
D-----------------------------------------------|---------------------
G---4(br)-------4(br)-------4(br)-------4(br)---|-----------------------
C--0-----------0-----------0-----------0--------|----------------------
      br = bend and release
REPEAT Intro (5X) with slight variations.
REPEAT Verse.
REPEAT Chorus.
REPEAT Breakdown.
El fin.

Sent by Jordan Snodgrass (jasnodgr@ucsd.edu).