SOUNDGARDEN

Sub Pop Rock City

Standard tuning.
Bass intro:
d|-----------------------------------------------------
a|-----------1--1--1--1--4--4--------------------------
E|--3--3--3--------------------1--1--1--3--3--3--0--0--

Verse
b|------------------------
g|-----------3--3^4^3--3--
d|--5--5--x--3--3^4^3--3--
a|--5--5--x---------------
E|--3--3--x---------------

Play that 8 times, then the bass intro twice, and the verse 8 times
again. Then play this:

Chorus I
g|----------------------------------
d|--7--7-7-7-7-7-7--5---------------
a|--7--7-7-7-7-7-7--5------2--5-----
E|--5--5-5-5-5-5-5--3--/3--------5--

Play that 4 times, then play this:

Bridge
e|--0------------
b|--2-----2 ^ 4--
g|--0------------
d|--2------------
a|--0------------
E|---------------

Pick that first chord once, then 5 times fast, and do that three
times, then last note is bent up slowly, pick it once, then 10 times
real fast... now pause for that wonderful phone conversation (you can
play the bass intro if you want).

Chorus II
e|------------------3--
b|-------7-------5-----
g|---------------------
d|--5/7-----3/5--------
a|---------------------

Play that eight times, then play this:

E|--0--

Play the open low e three times, but play with your tremolo or
detune it while your playing it... it works best if it's feeding back a
bit.
Tabbed by Arden, figured out by Steve Lynch.