SOUNDGARDEN

Show Me

Fig. 1 (barre chords; at least it sounds like them)
e--5---5---5-5-5-4--3--0-----|
B--5---5---5-5-5-4--3--0-----|
G--6---6---6-6-6-5--4--1-----|
D--7---7---7-7-7-6--5--2-----|
A--7---7---7-7-7-6--5--2-----|
E--5---5---5-5-5-4--3--0-----|
          |_____|
	     3   (triplet)

Note: Strumming pattern varies slightly from time to time; especially on the final E chord. Also during that E chord, Kim does a little lead guitar work. It's nothing difficult--Blues Scale in E--and you should have little trouble figuring it out.

Fig 2 (chorus)

e-------------------------|
B-------------------------|
G-------------------------|
D--5-5---7-7---7-7-5-2----|
A--3-5---5-7---5-7-5-2----|
E--3-3---5-5---5-5-3-0----|
			(repeat)

That's all there is to it. The really cool double-guitar solo is in the E Blues Scale. This song is a lot of fun to play, if you jam along with friends. The more the merrier. Enjoy!

Sent by Ryan from Utah.