SOUNDGARDEN

She's A Politician

Standard tuning.

( / ) = slide

E)---------------------------------------------------------------------------------------------------------------------------
B)---------------------------------------------------------------------------------------------------------------------------
G)------4---------------7-/-9--9-------------------5-----5---------------------------------------------------------------
D)------4------3-------7-/-9--9-------------5-----5-----5----------------------------------------------------------------
A)------2------3-------5-/-7--7-------------5-----3-----3---------------------------------------------------------------
E)--------------1------------------------0----3-------------------------0---2---1---0---5---2---0---2---0---2---


E)--------------------------------------------------------------------------------------------------------------------------
B)--------------------------------------------------------------------------------------------------------------------------
G)------7---------------------2-----2-----5------------------------------------------------------------------------------
D)------7------3------2------2-----2-----5------5------5--------------------------------------------------------------
A)------5------3------2------0-----0-----3------5------5---------0---2---1---0---5---2---0---2---0---2---0---
E)--------------1------0---------------------------3------3--------------------------------------------------------------


D)----------------------------------------
A)-----------------------------------------
E)------0---2---0---2---0---2---0---2  etc.


G)------7-/-9----7-/-9----7-/-9----7-/-9
D)------7-/-9----7-/-9----7-/-9----7-/-9
A)------5-/-7----5-/-7----5-/-7----5-/-7
E)--------------------------------------------

that's all of the riffs in the song. repeat where necessary

Sent by Mark Yeary (JCPose@aol.com).