SOUNDGARDEN

Nowhere But You

Dropped-D tuning.

Rhythm figure one

D)---------------------------------------------------------------------------------------------------
A)---------------5----1----0------5---------------------------------------------------------------
D)------0----------------------------------6------0----5-------5----4----3----3--3--5--5-----

play twice...then the verse rhythm:

D)--------------------------------------------------------------------------
A)--------------5----1----0------5---------------------------------------
D)------0----------------------------------6------0----5------5----3----

Play this twice...once during the first part of the first verse and once during the break. During the second part of the first verse, play rhythm figure one.

After the first verse, and into the chorus, the rhythm is:

G)---------------------------------------------------------------------------------5-----------------
D)---------------------------------------------------------------------------------5-----------------
A)----------------5----1----0------5-----------------------------------3-------3-----------------5
D)------0----------------------------------6-----0---5-----5--5--0---3-----------------3--3---5


G)-------------------------------------------------------------------------------------------2----------2
D)-----------2-----3------------------------------------------------------------------------2----------2
A)------0---0-----1-------1----5-----7---------------------------------------------------0-----0---0
D)---------------------------------------7------7----6----5------5--5--7--7----0--------------------


G)---------------5---------------------------------2----3-----------------------------------------------------------
D)---------------5---------------------------------2----3-----------------------------------------------------------
A)------3-------3-----------3----5---------0----0----1------1-----5------------7----------5------5----------3
D)------3--------------3----3----5------------------------------------------7-----7----6----5------5----4----3


G)---------------------------------------------------------------------------------------------------------------
D)------2----------------------------------------------------2-------------------------------------------------2
A)------0----------------------------------------------------0-------------------------------------------------0
D)-----------------3--5-----5--4--3-------3--2--1---------------3--5-----5--4--3-------3--2--1--------

Repeat the rhythms in the same order.

Sent by Mark Yeary (JCPose@aol.com).