SOUNDGARDEN

Karaoke

Feedback

Intro (2x)
* (tremelo picking)
|-----------------------------------|
|-----------------------------------|
|-----------------------------------|
|---13*-12--11*-9-----(9)-----------|
|-----------------------------------|
|---11*-10--9*--7-----(7)-----------|

|---0-------------------------------|
|---0-------------------------------|
|---0-------(0)---------------------|
|---0-------(0)---------------------|
|---0-------------------------------|
|---0-------------------------------|

Verse
|------------------------------|
|------------------------------|
|------------------------------|
|-----------5-4--3-------------|
|---0-2-3-0-5-4--3-4-----------|
|---0-2-3-0--------4-----------|

Pre-chorus (4x)
|------------------------------|
|------------------------------|
|-----------6------------------|
|---4-4-2-2-6------------------|
|---4-4-2-2-4--3h4p3-----------|
|---2-2-0-0---4-----5-4--------|

Chorus             (3x)
|-------------------3-3-3|-----|
|-------------------0-2-0|-----|
|---4---4---3-------0-0-0|--6-7|
|---4---4---3---4---0-0-0|-----|
|---2---0---1---4---x-x-x|--4-5|
|---------------2---3-3-3|0----|

Interlude  (4x)
|------------------------------|
|--------------0---------------|
|-------0-0--------------------|
|-----5---5--------------------|
|---4-4-----4------------------|
|---4-------4------------------|

Order:
Intro
Verse (twice)
Pre-chorus
Verse
Pre-chorus
Chorus
Verse
Pre-chorus
Chorus
Verse
Interlude
Chorus
Intro (Outro, I guess) (twice)
Transcribed by Jimi Connolly (Draco900@aol.com).