SOUNDGARDEN

HIV Baby

Dropped-D tuning.

Main riff:

D)------0----3----0----5----0----6----0----6----7----10---10---10---10
A)------0----3----0----5----0----6----0----6----7----10---10---10---10
D)------0----3----0----5----0----6----0----6----7----10---10---10---10


D)------0----3----0----5----0----6----0----6----7----12---12
A)------0----3----0----5----0----6----0----6----7----12---12
D)------0----3----0----5----0----6----0----6----7----12---12


D)------0----3----0----5----0----6---7---6---5---3---0---3---0---3--3---0---3--3--3--3--3--3--3--3
A)------0----3----0----5----0----6---7---6---5---3---0---3---0---3--3---0---3--3--3--3--3--3--3--3
D)------0----3----0----5----0----6---7---6---5---3---0---3---0---3--3---0---3--3--3--3--3--3--3--3

chorus riff:

D)------12---12---12---12-----10------0---6---7---6---5---3
A)------12---12---12---12-----10------0---6---7---6---5---3
D)------12---12---12---12-----10------0---6---7---6---5---3

outro riff: -- (h) = hammer-on

D)-----------------------------------------------------------------
A)------------------------3---------------------------------------
D)------0---3-(h)-4-----------5---4----3-(h)-4-----3-(h)-4

play three times, then:

D)-------------------------------------------
A)------------------------3-----------------
D)------0---3-(h)-4------------5---4---3

Sent by Mark Yeary (JCPose@aol.com).