SOUNDGARDEN

Girl U Want

Standard tuning.

this is the intro and main riff:

D)--------------------------------------------------
A)------6---7---7---6---7---6---7---7---6---7
E)---------------0----------------------0---------

then play:

D)------5---5------7---7
A)------5---5------7---7
E)------3---3------5---5

the second time the chorus is repeated, Kim plays this:

E)-----------------------------------------------------------------------
B)-----------------------3-----------------3---5----------------------
G)------4---2---3------------2---3----------------------------------
D)--------------------------------------------------------2-------------
A)-----------------------------------------------------------------------
E)-----------------------------------------------------------------------



  " Look at you...your mouth watering...:"


G)--------------------------------5---------------------2------------2------------2
D)------3-------5-------3-------5------5------3-----2------------2------------2
A)------3-------5-------3-------3------5------3-----0-----0-----0-----0-----0
E)------1-------3-------1---------------3------1----------------------------------


D)-----------------------------------------
A)------2--2--2--2--2--2--2--2--2--2**
E)------0--0--0--0--0--0--0--0--0--0**

** palm mute this rhythm

repeat where necessary.

Sent by Mark Yeary (JCPose@aol.com).