SOUNDGARDEN

Fell On Black Days (demo)

Normal Tuning.
Heavy Distortion.
There are slight variations, but they are easy to pick up.

Verse

E-------------------------------|----------------------------------------|
B-------------------------------|----------------------------------------|
G-------------------------------|----------------------------------------|
D-------------------------------|----------------------------------------|
A--0--3b--0----------------3--0-|-0--3b--0----------------3--0--3--5--5--|
E------------3--3--5\2--3-------|-----------3--3--5\2--3-----------------|
Bridge
E------------------------------------------------------------|
B------------------------------------------------------------|
G------------------------5--5-7---5--5-5-5/7-----------------|
D-3--3-3-3/5--7---7-7-7--3--3-7---5--5-5-5/7--3--3-3-3/5--0--|
A-3--3-3-3/5--7---7-7-7--3--3-5---3--3-3-3/5--3--3-3-3/5--0--|
E-1--1-1-1/3--5---5-5-5-----------------------1--1-1-1/3--0--|
Chorus
E----------------------------------------|
B----------------------------------------|
G---5--5-5-5/7-----------5---------------|
D---5--5-5-5/7--3--3-3-3-5--3-3/5-5-5-0--|
A---3--3-3-3/5--3--3-3-3-3--3-3/5-5-5-0--|
E---------------1--1-1-1----1-1/3-3-3-0--|
That's basically it.

Sent by Jordan Snodgrass (jasnodgr@ucsd.edu).