SOUNDGARDEN

Earache My Eye

by Cheech and Chong, as performed by Soundgarden

Dropped D tuning: DADGBE

INTRO - 1X
E ||-----------------------------------|
B ||-----------------------------------|
G ||-----------------------------------|
D ||--2--4-4-4--2--4-4--2--------------|
A ||--2--4-4-4--2--4-4--2--------------|
E ||--2--4-4-4--2--4-4--2--------------|

VERSE
E ||------------------------------|
B ||------------------------------|
G ||------------------------------|
D ||--4--3--2--4--3--2-/-7--4-----|
A ||--4--3--2--4--3--2-/-7--4-----|
E ||--4--3--2--4--3--2-/-7--4-----|

BRIDGE
E ||---------------------------------------------------|
B ||---------------------------------------------------|
G ||---------------------------------------------------|
D ||--10-9--9-3-0--0-8-7--7-3-0--0-6-5-4--4----6b------|
A ||--10-9--9-3-0--0-8-7--7-3-0--0-6-5-4--4----6b------|
E ||--10-9--9-3-0--0-8-7--7-3-0--0-6-5-4--4------------|
Just repeat VERSE and BRIDGE over and over with slight variations... lots of random bends and pausing.

Transcribed by The Brothers Snodgrass (asnod@owl.csusm.edu / jasnodgr@ucsd.edu)