SOUNDGARDEN

Fell On Black Days (demo version)

It's dropped-D dropped-G tuning; tune your E string down at the 7th fret and same with the A string.

Main riff:

                     repeat 2x      |
G-----------------------------------|---------------|
D-----------------------------------|---------------|
G-------5----------------------5----|---5---7--7--7-|
D--7--------7---5---7---4---7-----7-|---------------|
                                    |
Prechorus:
G---------------------------------------------------|
D---------------------------------------------------|
G----------------------------5--5---5---------------|
D---3-3-3--5-5----7--7---7--------------------------|
Chorus:
G---------------------------------------------------|
D---------------------------------------------------|
G-----5--5-5-5--7-7-7--------5-5-5------------------|
D---------------------3-3-3---------3--5-5-5--0--0--|

G--------------------------------------------------------------|
D--------------------------------------------------------------|
G------5-5-5--7-7-7---------5-5-5------------------------------|
D---------------------3-3-3----------3--3-3--5-5-5-5-5-5-5-5---|
That should be right. I don't even know if there's bass on the FoBD demo that's on the FoBD cd single, but that's the riffs, and the guitar plays the same riffs, just transfer those notes into chords.