SOUNDGARDEN

Uncovered

Standard tuning.
Intro:
e|----------------------------------------------------------------------------------------|
b|-5---3---2h3---2---0h2--0---------------------3h5--3--2--2h3--2--0--0h2--0--------------|
g|---0---0-----0-------------2--0--2--2p0-------0----0--0--0----0--0--0----0--2p0--0h2--2-|
d|-----------------------------------------2----------------------------------------------|

Play this chord four times before the verse:
e|--0--0--x-x--x-x-x--|
b|--3--3--x-x--x-x-x--|
g|--1--1--x-x--x-x-x--|
d|--0--0--x-x--x-x-x--|
a|--2--2--x-x--x-x-x--|
e|--0--0--x-x--x-x-x--|

Play this part right before the verse:
d|---------------------------------------------------|
a|--4h5--5/7--7--5h7p5--4h5--5--5--4h5p4--2h4--4--4--|
e|---------------------------------------------------|

Play that chord four more times and play this part throughout the verse:
d|----------------------------------------------------------------|
a|--4h5--5/7--7--5h7p5--4h5--5--5--4h5p4--2h4--4--4--4h5--5/7--7--|
e|----------------------------------------------------------------|

Play this middle piece twice ("Strong is your body / strong are your
bones"):
b|----------------------------------------|
g|--7h9--7--6--6h7--6--4--4h6--4--2--0h2--|
d|----------------------------------------|

Play that chord four more times, them play this twice:
d|------------------------------------------|
a|--6h7--7--6--6h7--5--5--5--6--7-----------|
e|---------------------------------5--6--7--|

Play this over that last riff twice:
g|---------------------------------------------|
d|---------------------------6--5--4-----------|
a|--6h7--7--6--6h7--/10--10-----------5--6--7--|
e|---------------------------------------------|

Play the chrord four more times, the verse piece, the middle piece
("Strong is your body") and end by playing the chord eight times,
holding it the last time.
Sent by Ken Casey (kcasey@wizards.net).