SOUNDGARDEN

Ugly Truth

Key:

The spacing isn't 100% correct. Play in normal tuning.

Intro (all notes harmonics on intro):

D|-------------------------------------------------------------------------|
A|-------------------------------------------------------------------------|
E|--7777777777777777777777777 7 7 7 7 7 7 2.6-2.6-2.6-2.6-2.6-2.6-2.6-2.6--|

D|---------------------------------------------------------------------------
A|---------------------------------------------------------------------------
E|--2.6-2.6-2.6-2.6-2.6-2.6-2.6-2.6--4--4-444444444444444-7777777777777777777

---------------------------------------------------------------------------
---------------------------------------------------------------------------
---------------------------------------------------------------------------
---------------------------------------------------------------------------
--------------------------------------------------------------------------- 
--7777777777777777-2.6-2.6-2.6-2.6-2.6-2.6-2.6-2.6-44444444444444-77777777-

----------------------------------------------------------------------------
----------------------------------------------------------------------------
----------------------------------------------------------------------------
----------------------------------------------------------------------------
----------------------------------------------------------------------------
--77777777777777777777777772.6-2.6--2.6-2.6-2.6-2.6-2.6-2.6-2.6-2.6-2.6-2.6-

---------------------------------------
---------------------------------------
---------------------------------------
---------------------------------------
---------------------------------------
--2.6-2.6-2.6-2.6-4444444444444444-77--
Riff 1:
-----------------------------
-----------------------------
-----------------------------
-----------------------------
--5--2------2--0----5--2--0--
-----------------------------
During verse guitar two plays the following:
-----------------------------
-----------------------------
-----------------------------
-----------------------------
-----------------------------
--7-7-7-7-7-7-7-7-7-7-7-7-7--
Also in the verse is a guitar fill:
--------------------------------
--------------------------------
--------------------------------
------------2-------------------
--2--0---------0----2--0--0--5--
--------------------------------
During the fill guitar two plays:
------------------------------------------------------------------------
------------------------------------------------------------------------
9-9-9-9-9-9-9-9-9-9-9--9--9-9-9-9---------------------------------------
-----------------------------------7-7--7--7-7-7-7-7-7-7----------------
-----------------------------------------------------------5--2------2--
------------------------------------------------------------------------

----------------------------------------------
----------------------------------------------
----------------------------------------------
----------------------------------------------
--0--0--5----2--0----0--5--2------2--0--0--5--
----------------------------------------------
The bridge is:
       I don't think I understand you .....
-----------------------------------------------------------------
-----------------------------------------------------------------
-----------------------------------------------------------------
---------------------4--------------------2----------------------
--2---------------2--------------------2-------------------2-----
--------------------------------------------------------------0--

-----------------------------------------------------------------
-----------------------------------------------------------------
---------------4-------------------------------------------------
-----------------------------------4--------------------2--------
------------2-------------------2--------------------2-----------
-----------------------------------------------------------------

                           And even              it isn't mine...
-----------------------------------------------------------------
-----------------------------------------------------------------
-----------------------------------------------------------------
--------------------------------0--------------------2-----------
------2----------------------0--------------------0--------------
---------0-------------------------------------------------------

                                   i'll say it any........
----------------------------------------------------------------
----------------------------------------------------------------
-------------2-----------------------------------------------4--
--------------------------------------------------------4----4--
----------0---------------------0-0-0-0--0-0-0-0-0---0--2-------
----------------------------------------------------------------

way.............................................
-----------------------------------------------------------
------------5-----------------5----------------5-----------
-------------------------------------------------------4---
----4-----------------4--------------4---------------------
----2-----------------2--------------2---------------------
-----------------------------------------------------------

(pick these notes fast, aka trill)
-----------------7^10------------------------7^10-----------------------
----------7^10----------7^10----------7^10----------7^10----------7^10--
---7^9--------------------------7^9-------------------------7^9---------
------------------------------------------------------------------------
------------------------------------------------------------------------
------------------------------------------------------------------------

---7^10-----------------------7^10-------------------7^10---------------
----------7^10---------7^10----------7^10-------7^10------7^10----------
-----------------7^9------------------------7^9------------------7^9----
------------------------------------------------------------------------
------------------------------------------------------------------------
------------------------------------------------------------------------

---------7^10---------------7^10------7^10---------
---7^10-------7^10-----7^10------7^10------7^10----
-------------------7^9-----------------------------
---------------------------------------------------
---------------------------------------------------
---------------------------------------------------
Riff E (pick the following notes as fast as possible aka tremolo picking):
------------
--0---------       second guitar plays harmonic on same string 12th fret
------------      
------------              this note for nine bars then
------------
------------
In the following the spacing is closer than in the song, so listen to the song to understand. The second number is guitar 2, all notes are still tremolo picking:
------------------------------------------------------------------------
--0(0)--------2(0)----2(0)---4(7)---4(7)----4(7)--5--5(7)--10(5)-10(5)--
------------------------------------------------------------------------
------------------------------------------------------------------------
------------------------------------------------------------------------
------------------------------------------------------------------------

---------------------------------------------------------------------
------12-----12(7)----12(7)-----10(7)---(10)-----10(10)----12(12)----
---------------------------------------------------------------------
---------------------------------------------------------------------
---------------------------------------------------------------------
---------------------------------------------------------------------

-----------------------------------------------------------
---12--(12\0)-----12(0)------10(0)---10(0)---12---12(0)----
-----------------------------------------------------------
-----------------------------------------------------------
-----------------------------------------------------------
-----------------------------------------------------------
End with Riff 1 and Riff E.

Sent by Mike Kitzman (vanguard@holly.colostate.edu).

Andreworks & Co. (HAPA)