SOUNDGARDEN

Power Trip

Key:

Warning: spacing may not be 100% correct, but if you listen to the song you won't have any problems.

Intro:

E||--------------------------------------------------------|
B||--18B-----18B------18B------18B-----18B--18B--18B--18B--|
G||--------------------------------------------------------|
D||--------------------------------------------------------|
A||--------------------------------------------------------|
E||--------------------------------------------------------|

E||------------------------|
B||--18--------------------|
G||--------17B----17B--17--|
D||------------------------|
A||------------------------|
E||------------------------|

E||----------------------------------------------------|
B||--15----15-------15--17B--17B--15B-----15--17B--17--|
G||--15----15-------15--17B--17B--15B-----15--17B--17--|
D||------------17----------------------17--------------|
A||----------------------------------------------------|
E||----------------------------------------------------|

E||------------------------|-------------||
B||--15------15--17B--17B--|--17B---17\--||
G||--15------15--17B--17B--|--17B---17\--||
D||------17----------------|-------------||
A||------------------------|-------------||
E||------------------------|-------------||
Riff A:
D||-----------------0--0p2-----------|--------------0--0p2---7---------|
A||------------------------------1B--|---------------------------------|
E||--0-------3-----------------------|---0---3---------------6---------|

D||-------------0--0p2-----------|------------0--0p2---------||
A||--------------------------1B--|-----------------------1B--||
E||--0---3-----------------------|---0---3-------------------||
Riff B:
D||-------------------------------------------------||
A||----10--10--10--10--9--9/12--12--12--11--11--11--||
E||-------------------------------------------------||
With Riff B:
G||--11B-11B-11B-11B--11--11--11B--11--11---11--11--||
D||-------------------------------------------------||
A||-------------------------------------------------||
E||-------------------------------------------------||
Then Fill 1:
E||--------------------------||
B||---4--------2-------------||
G||---6B-------4B-----4B--2--||
D||--------------------------||
Then Riff C:
D||--2---2--5---5--7----7--8---||
A||--2---2--5---5--7----7--8---||
E||--0---0--3---3--5----5--6---||
Then play this over Riff C a few times:
king.........               I wanna be ........
E||--15B---15B--15B----15B------15B--15B-----15B--15B---15B--15B--15B--|
B||--18B---18B--18B----18B------18B--18B-----18B--18B---18B--18B--18B--|
G||--------------------------------------------------------------------|

E||---12B----||
B||---18B----||
G||----------||
Then, towards the end:
 ...swear to god I ........
E||---------------------------------------------------|
B||---12--------12---12--------12---12----------------|
G||---12--------12---12--------12---12-------12---12--|
D||--------14-------------14-------------14-----------|
A||---------------------------------------------------|
E||---------------------------------------------------|

E||--------------------------|
B||--------------------------|
G||-------12---12--------12--|
D||--14--------------14------|
A||--------------------------|
E||--------------------------|

E||-------------------------------------------------------||
B||--12---------12---12---------12---12---------12---12B--||
G||-------14--------------14-------------14---------14B---||
D||-------------------------------------------------------||
A||-------------------------------------------------------||
E||-------------------------------------------------------||
The end is:
             i wanna be ....      
D||------------------------------------------------------||
A||--2-----0---------2------0---------2------0-----------||
E||-------------1----------------1---------------1----0--||
Also, towards the end is fill 1 but with a different last note:
E||---------------------------||
B||---4-------2---------------||
G||---6B------4B---4B--2------||
D||---------------------------||
A||---------------------------||
E||-----------------------4B--||
Sent by Mike Kitzman (vanguard@holly.colostate.edu).

Andreworks & Co. (HAPA).