SOUNDGARDEN

I Awake

Drop D tuning.
Intro
|-----------|
|-----------|
|-----------|
|-3---------|
|---2-1-----|
|-------4-3-|

Chorus
|-------------------------------------|
|-------------------------------------|
|-------------------------------------|
|-2-2-2-2-1---0-----------------------|
|-2-2-2-2-1-----0---------------------|
|-2-2-2-2-1-0-------------------------|

Verse
|---------------------------------------|
|---------------------------------------|
|---------------------------------------|
|---------------------------------------|
|-2-3-3-3-3-2-3-3-3-3-2-3-3-3-3-2-3-4-4-|
|-2-3-3-3-3-2-3-3-3-3-2-3-3-3-3-2-3-4-4-|

Pre-chorus
|------------------------------------------------------|
|------------------------------------------------------|
|------------------------------------------------------|
|------------------------------------------------------|
|------------------------------------------------------|
|-2-3-3-3-3-2-3-3-3-3-2-3-4-4-2-3-3-3-3-2-3-4-4-4-4----|
Sent by Jimi Connolly (draco900@aol.com).