SOUNDGARDEN

Hands All Over

Drop D tuning.
e----------------------------------------------------------------
b--3--3---3---3---3----------------------------------------------
g--2--2---2---2---2-repeat for 8 barres--------------------------
D--0--0---0---0---0----------------------------------------------
A----------------------------------------------------------------
D----------------------------------------------------------------
Ahhhh................           
e--5----5----5----5>>>7----7----7----7----7----7>>>8----8----8---
b----------------------------------------------------------------
g--2----2----2----2>>>4----4----4----4----4----4>>>5----5----5---
D--0----0----0----0>>>0----0----0----0----0----0>>>0----0----0---
A----------------------------------------------------------------
D----------------------------------------------------------------
                          Don't touch me!
e--8----8>>>10---10---10---10---10-------]-----------------------
b----------------------------------------]-----------------------
g--5----5>>>7----7----7----7----7--------]-----------------------
D--0----0>>>0----0----0----0----0--------]-----------------------
A----------------------------------------]-----------------------
D----------------------------------------]-----------------------

Main riff played throughout song: e---------------------------------------------------------------- b---------------------------------------------------------------- g---------------------------------------------------------------- D-------------------------------0----Play for three barres then:- A---------------------------------------------------------------- D--0--0-0-(3)>>5--0-0--0>>>12--12-------------------------------- e---------------------------------------------------------------- b---------------------------------------------------------------- g------11------11--------------11------11--------------11------11 D--10------10------10--10--10------10------10--10--10------10---- A---------------------------------------------------------------- D---------------------------------------------------------------- e---------------------------------------------------------------- b---------------------------------------------------------------- g--------------11(bend )-11--------------11------11-------------- D--12--12--12----------------12--12--12------12------10--10--10-- A---------------------------------------------------------------- D---------------------------------------------------------------- e---------------------------------------------------------------- b---------------------------------------------------------------- g--11------11--------------11------11--------------11(bend 3X's)- D------10------10--10--10------10------12--12--12---------------- A---------------------------------------------------------------- D---------------------------------------------------------------- ...kill your mother.... e---------------------------------------------------------------- b---------------------------------------------------------------- g--(5)>>>7-7-7-7-7-5--5-5-5-5>>4--4>>2--2>>5-5-5--5---5-4--5-4-5- D---------------------------------------------------------------- A---------------------------------------------------------------- D---------------------------------------------------------------- e---------------------------------------------------------------- b---------------------------------------------------------------- g--4>>2--2------------------------------------------------------- D---------------------------------------------------------------- A---------------------------------------------------------------- D----------------------------------------------------------------

There are some lead guitar parts missing but nothing that is too different from what is already here; these are the essentials.

Sent by tegan1@sprynet.com.