SOUNDGARDEN

Gun

Dropped D tuning.

This is the first riff in the song (intro and verses):

D||-----------------------------------|
A||--0--2--3--0--2--3--0--0--0--2--3--|
D||--0--2--3--0--2--3--0--0--0--2--3--|

D||--------------------------------|
A||--0--2--3--2--0--3--2--0--2--2--|
D||--0--2--3--2--0--3--2--0--2--2--|

D||--------------------||
A||--0--3--2--0--2--2--||
D||--0--3--2--0--2--2--||

D|-----2--3--|
A|--0--2--3--|
D|--0--------|
This part is basically the same as above except where you see 2s or 3s, play them on the 4th and 5th strings:
D|------------------------------------------------|
A|--0--2--2--0--2--2------0--2--2--0--7--7--7--7--|
D|--0--2--2--0--2--2------0--2--2--0--7--7--7--7--|
The last chord is the bottom two strings on 7.

Sent by Nothingman (rc@gcc.cc.md.us).

Andreworks & Co. (HAPA).