SOUNDGARDEN

Get On The Snake

Standard Tuning.

b = bend
<7> = Natural Harmonic
^ = specified bend
(7) = Implied note or pitch

Intro Fig.

D---------------------|----------------------|
A-----grad. bend 1/2--|----------------------|
E--3^----5-3-5-3-5----|--3^----5-3-5-/8-7-5--|
               Play 3X                Play 1X
Lead Guitar:
e---------------------------|
B--<7-7-7>------------------|
G----------<7-7-7>----------|
D------------------<7-7-7>--|
   (triplets, rest 1/2 beat before and after)
Fig. 1 (Verse)
D------------------------|---------------------|
A--5----3----------------|----3--5-------------|
E------------7--5--3--0--|--0---------7-5-3-0--|
Get on the snake . . .
Fig 2 (Chorus)
D------------------------|----------------------|----------------------|-------------|
A--5----3----------------|--5--3----------------|--5--3----------------|-3--5--------|
E------------7--5--3--0--|----------7--5--3--5--|----------7--5--3--6--|-------5--0--|
No, don't worry everything's clean...                   Road worthy,    hungry and...
Fig. 1b (Guitar 2, second verse)
e------------------------|-----------------------|
B--9----7----------------|----9--7---------------|
G--9----7----------------|----9--7---------------|
D--9----7----------------|----9--7---------------|
A------------------------|-----------------------|
E------------7--5--3--0--|--0--------7--5--3--0--|
Fig. 1c (Guitar 2, third verse)
e--------------------------|---------------------------|
B--5-----3-----------------|--5-----3------------------|
G--7b(9)-5b(7)-------------|--7b(9)-5b(7)--------------|
D--------------------------|---------------------------|
A--------------------------|---------------------------|
E--------------7--5--3--0--|---------------7--5--3--0--|
  (unison bend)              (unison bend)
Fig. 3 (Outro)
G--9--/--13-|--13--|--9--\--7--|--7--|
D-----------|------|-----------|-----|
A--7--/--11-|--11--|--7--\--5--|--5--|
E-----------|------|-----------|-----|

G--9--/--14--|--14--|--13--\--9--|--9--|
D------------|------|------------|-----|
A--7--/--12--|--12--|--11--\--7--|--7--|
E------------|------|------------|-----|
Play all of that twice, then:
G--9--|--14--|--13--|--9--|
D-----|------|------|-----|
A--7--|--12--|--11--|--7--|
E-----|------|------|-----|
Play twice, followed by:
G--9-----------
D--------------
A--7-----------
E--0-----------
Let feed back... out.