SOUNDGARDEN

Full On (Reprise)

Comments:
- I personally finger the C chord as a Cadd9 just for ease of playing...
- the B5 would be a Bmaj normally and they might play it like that later on in the song but in the intro riff I don't hear that Eb...
- that half-step bend is actually more of a one-fourth bend except this program doesn't do those...
- keep in mind that this is all improvised (not the chords themselves just the way they are played...)! it's a jam riff! have fun with it!

                                                                        
E-------||---0--------|--2--------3p2--5--5--3p2--0--|--0---------|-----
B-------||---0--------|--3-----3--3----2-----3----3--|--1---------|-----
G---4:--||*--1--1--1--|--2--2-----2----3-----2----2--|--0--4------|-----
D---4:--||*--2--2--2--|--0---------------------------|--2--4------|-----
A-------||---2--2--2--|------------------------------|--3--2------|-----
E-------||---0--0--0--|------------------------------|--------3^--|-----
                                                                        

                                                                        
E---0------------------------||-----------------------------------------
B---0------------------------||-----------------------------------------
G---1----------0h1----------*||-----------------------------------------
D---2------------------0h2--*||-----------------------------------------
A---2--0h2----------2--------||-----------------------------------------
E---0-------0----------------||-----------------------------------------
                                                                        

========================================================================
==            Created with a demo version of BUCKET O' TAB            ==
==              tablature creation software for Windows               ==
==                   http://www.his.com/~gse/bucket                   ==
========================================================================
Sent by The Guitarist-2001 (spoonman@worldnet.att.net).