SOUNDGARDEN

Big Dumb Sex

Standard Tuning.
  Intro:
E-I-----------------I---------------12---I--------------I
B-I-11--11b--11-----I---11--11b--11------I--------------I
G-I-----------------I--------------------I--------------I
D-I-11--11b--11-----I---11--11b--11------I--2--4--2--4--I
A-I-----------------I--------------------I--0--2--2--2--I
E-I-----------------I--------------------I--------0-----I

It repeats this 8 times:
E-I---------------------I
B-I---------------------I
G-I---------------------I
D-I---7--7-4-------4----I
A-I---------7-4-7-------I
E-I---------------------I

Here's the verse:
E-I------------I--------------------------------I
B-I------------I--------------------------------I
G-I------------I--------------------------------I
D-I------------I-4--4-----------7--7-4-------4--I
A-I--7---------I------7-4---4-7--------7-4-7----I
E-I------------I----------7---------------------I

E-I-----------I-------------------------------I
B-I-----------I-------------------------------I
G-I-----------I-------------------------------I
D-I-9b--------I-4--4-----------7--7-4-------4-I
A-I-----------I------7-4---4-7--------7-4-7---I
E-I-----------I----------7--------------------I

E-I-----------I-------------------------------I
B-I-----------I-------------------------------I
G-I-----------I-------------------------------I
D-I-9b--------I-4--4-----------7--7-4-------4-I
A-I-----------I------7-4---4-7--------7-4-7---I
E-I-----------I----------7--------------------I

E-I-----------I-------------------------------I
B-I-----------I-------------------------------I
G-I-----------I-------------------------------I
D-I-9b--------I-4--4-----------7--7-4-------4-I
A-I-----------I------7-4---4-7--------7-4-7---I
E-I-----------I----------7--------------------I


E-I---------------------------------I
B-I---------------------------------I
G-I---------------------------------I
D-I-7--7-----------7--7-------------I
A-I------7-4---4-7------7-4---4-7---I
E-I----------7--------------7-------I

Play the verse twice then this:

E-I---------------------------I------------------------I
B-I---------------------------I------------------------I
G-I---------------------------I------------------------I
D-I-7--7-4-------4-7\---------I-7--7-4-------4-7\------I
A-I--------7-4-7--------------I--------7-4-7-----------I
E-I---------------------------I------------------------I

Now for the Chorus:
I'm gonna fuck.........
E-I---------------I---------------------------------I
B-I---------------I---------------------------------I
G-I--2--4-----4---I---------------------------------I
D-I--2--4--2--4---I--7--7-4-------4-7--7-4-------4--I
A-I--0--2--2--2---I---------7-4-7----------7-4-7----I
E-I--------0------I---------------------------------I

E-I-------------------------I------------------------I
B-I-------------------------I------------------------I
G-I-------------------------I------------------------I
D-I--7--7-4-------4-7\------I--7--7-4-------4-7\-----I
A-I---------7-4-7-----------I---------7-4-7----------I
E-I-------------------------I------------------------I

E-I---------------I---------------------I---------------I
B-I---------------I---------------------I---------------I
G-I--2--4-----4---I---------------------I--2--4-----4---I
D-I--2--4--2--4---I--7--7-4-------4-7\--I--2--4--2--4---I
A-I--0--2--2--2---I---------7-4-7-------I--0--2--2--2---I
E-I--------0------I---------------------I--------0------I

Then this 4 times after the chorus:
E-I------------------I
B-I------------------I
G-I------------------I
D-I--4--4------------I
A-I-------7-4---4-7--I
E-I-----------7------I

And the pre-solo:
|----------------------------------------------------------------------------------------
|--4b----4b-4b-4b-r-2--4b----4b-4b-4b-r-2---4b-4b-4b-r-2---------2--2
|--4b----4b-4b-4b-r-2--4b----4b-4b-4b-r-2---4b-4b-4b-r-2---------2--2
|------------------------------------------------------4-------------------4--4--------
|----------------------------------------------------------------------------------------
|----------------------------------------------------------------------------------------

And the solo (w/ octaver set on lower octave):
|-------------------------------------------------------------------------------------------------------------
|-----------------------------------------------------------------------------------------------17b---------
|--16b---16b--14h16p14-----14--14--16b---16b--14h16h14------14--14------------------
|---------------------------------16------------------------------------------16----------------------------
|--------------------------------------------------------------------------------------------------------------
|--------------------------------------------------------------------------------------------------------------

|----------------------------------------------------------------------17--------------
|--17b-r-b-r--14-----16b-r-b-r--14h16p14-----------------------------------
|------------------------------------------------------16b---16b-------16--14----
|----------------------------------------------------------------------------------------
|----------------------------------------------------------------------------------------
|----------------------------------------------------------------------------------------

|----------------------------------------------------------------------------------------
|----------------------------------------------------------------------------------------
|--16b-r--14h16p14-----14-14--------------------------------------------------
|--------------------------16----------16---14-------14----------------------------
|---------------------------------------------------16----------------------------------
|----------------------------------------------------------------------------------------

Then go back to the verse. Then the chorus again. 
Then it does a slight variation of the intro, then finishes.
Sent by Mike B. (spoonman@netlink.com.au) and modified by Jimi Connolly (draco900@aol.com).