SOUNDGARDEN

Tears To Forget

Standard Tuning
Intro:
d|-----------------------------------------------------------------
a|----------------4-----------5-----------6-----------8------------
E|--6-6-6-6-6-6-6---6-6-6-6-6---6-6-6-6-6---6-6-6-6-6---6-6-6-6-6--

Repeat that, leaving out the first little bit, starting with the 4. 
Then play these three chords:

g|-----------
d|--5-----6--
a|--3--5--4--
E|-----3-----

Repeat the Intro and play Verse I:

g|---------------------------------------
d|----------------5-5--3-3-3---------6-6-
a|--3-3-3--6-6-6--------------5-5-5------
E|---------------------------------------

Play that four times.  It's a little tricky at first, but once you
get it down it's pretty cool. Now's the only hard piece, the Chorus:

d|--------------------------------------------------------------------
a|--3-3-3----------------------------1-1------------------------1-1-1-
E|--------4-4-4--3-3--2-2-2--1-1-1--------4-4-4--3-3-3--2-2--1--------

b|-----------------------------------6--
g|--------------------------------------
d|--------------------------------------
a|------------------------1-1-1-1-1-----
E|--4-4-4--3-3-3--2-2--1----------------

Play that last bar twice. Then play Verse II:

d|----------------------
a|--3--6^7^6--5--8^9^8--
E|----------------------

Play that 4 times. Now play the Intro twice more, the three chords,
Verse I, Chorus, Verse II, and the Intro, ending finally on those 3
chords.
Tabbed by Steve Lynch, transcribed by Arden.