SOUNDGARDEN

Nothing To Say

Dropped D Tuning: DADGBe
Note: Depending on how heavy you want this to sound, play either single
strings or bar chords.
For example, where I have e||----------||  try playing it like: e||----------||
		          B||----------||			B||----------||
			  G||----------||			G||----------||
		          D||----------||			D||-9-8--12--||
		          A||----------||			A||-9-8--12--||
			  D||-9-8--12--||			D||-9-8--12--||

INTRO:
Just pluck the open D string... it should match Chris' vocals when he
calmly repeats "nothing.."  Listen to the CD for the rhythm.
e||-----||
B||-----||
G||-----||
D||--0--||
A||-----||
D||-----||

If you want to play the BASS part, play your low D string something like this:
e||---------------------------------||
B||---------------------------------||
G||---------------------------------||
D||---------------------------------||
A||---------------------------------||
D||--0--0-0-3----0-0---0--3--2-2----||

BRIDGE:
e||---------------------------------||
B||---------------------------------||
G||---------------------------------||
D||---------------------------------||
A||---------------------------------||
D||--0--0-0-2~-----0--0-0-5-4~------||

VERSE: Be sure to use a lot of vibrato.
e||--------------------------------------||
B||--11--11-11-9---11-11-11/15-15-12-11--||
G||--------------------------------------||
D||--------------------------------------||
A||--------------------------------------||
D||--------------------------------------||

REPEAT BRIDGE 1X

CHORUS
e||-------------------------------------------------------||
B||-------------------------------------------------------||
G||-------------------------------------------------------||
D||-------------------------------------------------------||
A||-------------------------------------------------------||
D||-10-9--12-----11--9-8--12b-11---9-8--6-7--7-6--0--2-2--||

REPEAT BRIDGE with slight variation:
e||---------------------------------||
B||---------------------------------||
G||---------------------------------||
D||---------------------------------||
A||-----------2~--------------------||
D||--0--0-0-2------0--0-0-5-4~------||

REPEAT VERSE
REPEAT BRIDGE
REPEAT CHORUS
REPEAT BASS line and a bunch of feedback

REPEAT BRIDGE with slight variation:
e||-------------------------------||
B||-------------------------------||
G||-------------------------------||
D||----------2tr3-----------------||
A||-------------------------------||
D||--0--0-0--------0--0-0-5-4~----||
		tr = trill

OUTTRO: Just repeat and slow down the tempo:
e||-------||
B||-------||
G||-------||
D||--5-4--||
A||--5-4--||
D||--5-4--||
Sent by Jordan Snodgrass (jasnodgr@ucsd.edu).