SOUNDGARDEN

Fopp

Part 1:
Beginning: pick scratch against strings
1---------------------------------------------------------------
2---------------------------------------------------------------
3-----5----3--------------------------------------------------5--3
4-----5----3-------5--5--3--5--3--5--5--5--3--5--5--3--5--3---5--3
5-----3----1-------5--5--3--5--3--5--5--5--3--5--5--3--5--3---3--1
6------------------3--3--1--3--1--3--3--3--1--3--3--1--3--1-------
Part 2:
Repeat this part through verse
1-----------------------------------------------------------------------------
2-----------------------------------------------------------------------------
3-----------------------------------------5--3--------------------------------
4---5--5--3--5--3--5--3--5--5--3--5--3----5--3--------------------------------
5---5--5--3--5--3--5--3--5--5--3--5--3----3--1--------------------------------
6---3--3--1--3--1--3--1--3--3--1--3--1----------------------------------------
Part 3:
Repeat this through "Foppin' the way it makes you go..."
1----------------------------------
2----------------------------------
3--------------------3--5----------
4--5--3--5--3--5--3--3--3----------
5--5--3--5--3--5--3--1--3----------
6--3--1--3--1--3--1----------------
Part 4:
Repeat this through: "Yeah yeah yeah yeah"
1----------------------------------------------
2----------------------------------------------
3----------------------------------------------
4--5--3----------------------------------------
5--------5--3--1--------------------3--1-------
6-----------------1----3--3--1---1-------------
Repeat Part 2 through: "Fopp and rock"

Sent by Myra Haza (mlhaza@mail.hsonline.net).