SOUNDGARDEN

An Unkind

Tuning (low to high): EBGDAE

Intro:

 2X Fig.1 - distortion:
G-----------------------------------------------------------------------------
D-----------------------------------------------------------------------------
A-2p0------------------2p0------------------2--2--2-2--2--2p0-----------------
E-----2-2--2--2-2-2p0------2-2--2--2-2-2p0--------------------2-2--2--2-2-2p0-

6X Fig.1 with these lyrics:

We see the vipers of distance
Crawl into our lives everyday
Breeding our Edens of hatred
Pathetically stupid and unkind
We couldn't look a saint in the eyes
We couldn't look a saint in the eyes

  Riff A  /distortion/:
G----------------------------------------------------------------------------
D----------------------------------------------------------------------------
A-2p0----2p0----2p0----2p0----2--2-2-2-2-2-2-2-2-2-2-2-2p0-------------------
E-----2------2------2------2-------------------------------2-2--2--2-2-2p0---

  Riff A1 - Played under Riff A /mandolin/:
G----------------------------------------------------------------------------
D-9p7----9p7----9p7----9p7----9--9-9-9-9-9-9-9-9-9-9-9-9p7-------------------
A-----9------9------9------9-------------------------------9-9--9--9-9-9p7---
E----------------------------------------------------------------------------

 2X Fig.2 /distotion/ with lyrics
G--------------------------------------------------
D-------------------------------------------7--2---
A-5-5--4-------4--5-------5-5--4-----4--5---7--2---
E---------2----------0------------2---------5--0---
On the storm
It's time to go
On the storm
It's time to go

6X Fig.1 with these lyrics:

Marching in lines of contradiction
Forgetting the history we make
Loving our hangmen
as the penultimate joke
We lack the Moses... B--14-14-14-14-14-14-14- ...
to look a saint in the eye

1X Riff A + Riff A1

1X Fig.2

4X Fig.1

1X fig.2

3X Fig.3 /distortion/:

G-------------------------------------
D-----------------------4---7---------
A-2p0-------------------4---7---------
E-----2-2--2--2-2-2p0---2---5---------

1X Fig.3b:
G-----------------------4-------------
D-----------------------4---4---------
A-2p0-------------------2---4---------
E-----2-2--2--2-2-2p0-------2---------  end.

Sent by Andrew Shepherd (s6496pas@sun10.vsz.bme.hu).