SOUNDGARDEN

Ty Cobb

Tuning (low to high): EADGBE

2X intro /guitar1:mandolin/

 |E-------5--------------------5-------5-----5------
 |B-----5---5-----5-5--------6---6--------6---------
 |G---3---------------0----5------------------------
 |D-------------------------------------------------
 |A------------3--------------------3---------------
 |E-------------------------------------------------
 |
 |Bass
 |G---5\--------------------------------------------
 |D-------------------------------------------------
 |A-----------------------3------------1-1-3--------
 |E---------------------------------1---------------
  
                                            end of intro
 |E--------13-13--12-12------------------------------------
 |B----------------------10/13--13--13---------------------
 |G-----------------------9-11--11--11-----3--5/7\5\3-0----
 |D--------------------------------------------------------
 |A---3----------------------------------------------------
 |E--------------------------------------------------------
 |
 |G--------------------------------------------------------
 |D--------------------------------------------------------
 |A---3-----------1--------1--1--3--3----------------------
 |E--------------------------------------------------------

Fig.1 /heavy distortion/
E--------------------------------------------------------------------
B--------------------------------------------------------------------
G--8/99999999999999999999999999999999----8/9999999999999999----------
D--8/99999999999999999999999999999999----8/9999999999999999----------
A--6/77777777777777777777777777777777----6/7777777777777777----------
E--------------------------------------------------------------------
                                                                 end of Fig.1
E-----------------------------------------------------------------------------
B-----------------------------------------------------------------------------
G--12--------x-12--x-9--x--12-----------12--------x-12--x-9--x--12------------
D--12--x-11--x-12--x-9--x--12--11-------12--x-11--x-12--x-9--x--12--11--------
A--10--x-11--x-10--x-7--x--10--11-------10--x-11--x-10--x-7--x--10--11--------
E------x-9---------------------9------------x-9---------------------9---------

2X Fig.1 with these lyrics:

I'm sitting in a magic hat
With smoke and mirrors
And tire rubber fires
Watch me disappear
What made it slow you down
Sucking on a ball and chain
Another motherfucker goes down the drain

Riff A /guitar2:mandolin/
E------------------------------------------------------------------------------
B--------10p12-12-12-12-10----------10-10-10-10-10-8----------10-10-10-10-10-10
G-7--9-9---------------------7--9-9--------------------7--9-9------------------
D------------------------------------------------------------------------------
A------------------------------------------------------------------------------
E------------------------------------------------------------------------------
        
              end of Riff A
E---------------------------
B----------8---------8------
G--9-9-9-9---9-9-9-9--------
D---------------------------
A---------------------------
E---------------------------

Fig.2 /distortion/
E-----------------------------------------------------------------------------
B-----------------------------------------------------------------------------
G--9--9-9-9-9-9-9-9----7--7-7-7-7-7-7-7---------------------------------------
D--9--9-9-9-9-9-9-9----7--7-7-7-7-7-7-7---7--7-7-7-7-7-7-7--------------------
A--7--7-7-7-7-7-7-7----5--5-5-5-5-5-5-5---7--7-7-7-7-7-7-7---7--7-7-7-7-7-7-7-
E-----------------------------------------5--5-5-5-5-5-5-5---0--0-0-0-0-0-0-0-

1X Fig.2 with 1X Riff A with these lyrics:
 Hard headed fuck uou all
 Hard headed fuck uou all
 Hard headed fuck uou all
 Just add it up to the hot rod death toll
1X Fig.2 with 1X Riff A with these lyrics:
 Hard headed fuck uou all
 Hard headed fuck uou all
 Hard headed fuck uou all
 Just add it up to the hot rod death toll

1X Fig.1 with 1X Riff B with 1X Riff C Riff B /guitar2:mandolin/
 E-----------------------------------------------------------------------------
 B-5555555555555553--55555555555555553--5888855555555555555---xxxx-------------
 G-----------------------------------------------------------------0-0---------
 D-----------------------------------------------------------------------------
 A-----------------------------------------------------------------------------
 E-----------------------------------------------------------------------------
                    end of Riff B
 E-----------------------------------
 B---xxxx-------xxxx-------xxxx------
 G--------0-0--------0-0---------0-0-
 D-----------------------------------
 A-----------------------------------
 E-----------------------------------

Riff C /guitar3:mandolin/:
 E-xx-12-x-12-x-12-x-12-x-10---00-7--0-7--0-7--0-7--0-5----xx-12-x-12-x-12--
 B--------------------------------------------------------------------------
 G--------------------------------------------------------------------------
 D--------------------------------------------------------------------------
 A--------------------------------------------------------------------------
 E--------------------------------------------------------------------------
                                                      end of Riff C
 E-x-12-x-10---00-7--0-7--0-7--0-7--0-5----00-7--0-7--0-7--0-7--0-5----------
 B---------------------------------------------------------------------------
 G---------------------------------------------------------------------------
 D---------------------------------------------------------------------------
 A---------------------------------------------------------------------------
 E---------------------------------------------------------------------------

2X Riff C /guitar2:distorted mandolin/ with 2X Fig.1
Sick in the head sick in the mouth
And can't hear a word you say
Not a bit, and I don't give a shit
I got the glass, I got the steel
I got the love to hate
All I need is head on a stake
E---------------------------------------------------
B---------------------------------------------------
G---------------------------------------------------
D---------------------------------------------------
A---------------------------------------------------
E--000000-0-5-7----7-5-3-0---7-7-7-7-7-5-3---7-5-3--

1X Fig.2 with 1X Riff A with these lyrics:
 Hard headed fuck uou all
 Hard headed fuck uou all
 Hard headed fuck uou all
 Just add it up to the hot rod death toll

Fig.2A /distortion/
E------------------------------------------------------------------------------
B------------------------------------------------------------------------------
G--9--9-9-9-9-9-9-9----7--7-7-7-7-7-7-7----------------------------------------
D--9--9-9-9-9-9-9-9----7--7-7-7-7-7-7-7---7--7-7-7-7-7-7-7---------------------
A--7--7-7-7-7-7-7-7----5--5-5-5-5-5-5-5---7--7-7-7-7-7-7-7---------------------
E-----------------------------------------5--5-5-5-5-5-5-5--0-5-3h0-5h0-0-3--0-
                                end of Fig.2A
E--------------------------------------------
B--------------------------------------------
G--------------------------------------------
D--------------------------------------------
A--------------------------------------------
E--3p5-----0-3-5h0-0-0--5h0-0--3--0--3p5-----

1X Riff D /distortion/
   H H Q Q Q Q  Q Q Q H  Q  Q Q      H H Q Q Q Q  Q Q Q  H  Q  Q Q
E-----------------------------------------------------------------------
B-----------------------------------------------------------------------
G-----------------------------------------------------------------------
D-----------------------------------------------------------------------
A-----------------------------------------------------------------------
E--0-5-3h0-0-0--5h0-0-3--0--3p5------0-3-5h0-0-0--5h0-0--3--0--3p5-----
The Q and H in Riff D&E refer to quarter and half notes respectly.

X Fig.3 /distortion/
E------------------------------------
B------------------------------------
G--------------------------/9--------
D--------------------------/9--------
A---10p12-10p12-9p10--7-7------------
E------------------------------------

2X Fig.4 /distortion/
 Hard headed fuck uou all
 Hard headed 
E---------------------------------------------------------------------------
B---------------------------------------------------------------------------
G--9--9-9-9----7--7-7-7-----------------------------------------------------
D--9--9-9-9----7--7-7-7---7--7-7-7------------------------------------------
A--7--7-7-7----5--5-5-5---7--7-7-7------------------------------------------
E-------------------------5--5-5-5---0-5-3h0-5h0-0-3--0--3p5----0-3-5h0-0-0-
      end of Fig.4
E-----------------
B-----------------
G-----------------
D-----------------
A-----------------
E---3--0--3p5-----

1X Fig.2A with 1X Riff A with these lyrics:
 Hard headed fuck uou all
 Hard headed fuck uou all
 Hard headed fuck uou all
 Just add it up to the hot rod death toll
1X Fig.2A with 1X Riff A with these lyrics:
 Hard headed fuck uou all
 Hard headed fuck uou all
 Hard headed fuck uou all
 Just add it up to the hot rod death toll

2X Riff D1 /guitar1 and guitar2:distortion/:
 to the hot rod death toll
 to the hot rod death toll
 to the hot rod death toll
 to the hot rod death toll
E-----------------------------------------------------------------------
B-----------------------------------------------------------------------
G-/9---------------------------------/9---------------------------------
D-/9---------------------------------/9---------------------------------
A-----------------------------------------------------------------------
E--0-5-3h0-0-0--5h0-0--3--0--3p5------0-3-5h0-0-0--5h0-0--3--0--3p5-----

7X Riff E /guitar2:mandolin/:
   H  Q  Q  Q Q Q Q  H     H  H   Q  Q                    
E---------------9-7---------------------
B---------------------------------------
G--------7--7p9-------------------------
D---------------------------------------
A-/7--7--------------7b8---7--7---------
E---------------------------------9--7--

Fig.5 /distortion/
--------------------------------------------------------------------------
B-----------------------------------------------------------------------------
G--12--------x-12--x-9--x--12-----------12--------x-12--x-9--x--12------------
D--12--x-11--x-12--x-9--x--12--11-------12--x-11--x-12--x-9--x--12--11--------
A--10--x-11--x-10--x-7--x--10--11-------10--x-11--x-10--x-7--x--10--11--------
E------x-9---------------------9------------x-9---------------------9---------

1X Fig.1 with 1X Riff B with 1X Riff C

(Music/Lyrics: Shepherd, Cornell)

Sent by Andrew Shepherd (s6496pas@sun10.vsz.bme.hu).