SOUNDGARDEN

Tighter & Tighter

Tuning (low to high): EADGBE

Key:
    <5> - Harmonics
     r  - release
     b  - bend
     /  - slide up
     \  - slide down

1X Riff A /distortion/:
 3X                       1X
G---------------<5>-------|-------------<12>-------|
D-----------5--------<5>--|------------------<12>--|
A-------------------------|---------7--------------|
E---0--3/-----------------|--0--3/-----------------|

Intro Solo /distortion with wah/
 E---------------------------------------------------------------------------
 B---15b17---------------17r15--------------12\------------------------------
 G---------------------------------------------------------------7---7p9-----
 D-----------------------------------------------------------7p9---9---------
 A---------------------------------------------------------------------------
 E---------------------------------------------------------------------------

                                                         end of Intro Solo                                           
 E---------------------------------------------------------------------------
 B------------10b12r10--10-10b12~~~~~r10-------------------------------------
 G-------7-------------------------------------12\7\-------------------------
 D---7p9---9-----------------------------------------------------------------
 A---------------------------------------------------------------------------
 E---------------------------------------------------------------------------


2X Fig.1 with 1X Intro Solo:
E-------------------------------------------------------------------0----
B-------------------------------------------------------------------0----
G-------------------------------------------------------------------0----
D-------5p6p5------------5p6p5--------------------------------------0----
A--------------5p7---------------5p7-----8^-----------5---5-5------------
E---0----------------0----------------5---------7---7---7----------------

4X Fig.1 /slight distortion/ with these lyrics:

 Shadow face
 Blowing smoke and talking wind
 Lost my grip
 Fell too far to start again
 A sudden snake
 Found my shape and tells the world
 Remember this
 Remember everything is just black
 Or burning sun

1X Riff B /distortion/:
                   And I hope it's a sweet ride
E----------------------0-------2---------
B--1-----0-------------0-------3---------
G--0--------0----------0-------2---------
D--2---------------2---2-------0---------
A--3---------------2---2-----------------
E------------------0---0-----------------
2X Fig.1b /distortion doubled by wah-distortion/
Sleep tight for me
Sleep tight for me I'm gone
Sleep tight for me
Sleep tight for me I'm gone
E----------------------------------------------------------------
B---------------------------------------------1----0-------------
G---------------------------------------------0-------0----------
D-------5p6p5------------5p6p5----------------2------------------
A--------------5p7---------------5p7-----8^---3------------------
E---0----------------0----------------5--------------------------

8X Fig.1 /slight distortion/ with these lyrics:
 Warm and sweet
 Swinging from a windows ledge
 Tight and deep
 One last sin before I'm dead
 A sucking holy wind
 Will take me from this bed tonight
 And bloody wits
 Another hits me and I have to say goodbye

3X Fig.1b /distortion doubled by wah-distortion/
 Sleep tight for me
 Sleep tight for me I'm gone
 Sleep tight for me
 Sleep tight for me I'm gone

1X Fig.2 /distortion/
And I hope it's a sweet ride
Here for me tonight
Cause I feel I'm going
Feel I'm slowing down
E----0------2-----|-------------------------------------------------
B----0------3-----|-------------------------------------------------
G----0------2-----|--------------------5---5--5---------------------
D----2------0-----|-2----7---7--7-5----5---5--5-5---7---7---5---4---
A----2------------|-2----7---7--7-5----3---3--3-5---7---7---5---4---
E----0------------|-0----5---5--5-3-------------3---5---5---3---2---

Solo part:

4X Fig.3 /distortion-wah/

 G--------------------------------------------------
 D--------------------------------------------------
 A----5-5-5-5-5p7--------------------1--2--3--------
 E-0--------------0---3-3-3-3-3p5-0-----------------
1X Fig.3b /distortion/
 G---------------------------------------------------
 D----7-7-7-7-7-9------------------------------------
 A----5-5-5-5-5p7-----5-5-5-5-5-7--------1--2--3-----
 E-0--------------0---3-3-3-3-3p5-0------------------
1X Fig.3c /distortion/
 E-------------------------------------------------------
 B---------------------------------------------1---0-----
 G---------------------------------------------0------0--
 D----7-7-7-7-7-9------------------------------2---------
 A----5-5-5-5-5p7-----5-5-5-5-5-7--------1--2--3---------
 E-0--------------0---3-3-3-3-3p5-0----------------------
End of solo.

2X Riff A

2X Riff C /slight distortion/

Sleep tight for me
Sleep tight for me I'm gone
E-------------------------------------------------------------
B--------------------------------------------------1---0------
G-----------<5>----------------------<5>-----------0------0---
D----------------<5>-----------------------<5>-----2----------
A--------------------------------------------------3----------
E-0/15---------------------0/15-------------------------------

4X Riff D /distortion/
Sleep tight for me
Sleep tight for me I'm gone
E--------------------------------------------------------------------------
B--------------------------------------------------------------1---0-------
G--------------------------------------------------------------0------0----
D-------5-5-5---5-----5-5-5-5--------5-5-5---5-----5-5-5-5-----2-----------
A-------------7----7-----------------------7----7--------------3-----------
E--0--------------------------0--0-----------------------------------------

1X Fig.2 /distortion/ with these lyrics
And I hope it's a sweet ride
Here for me tonight
Cause I feel I'm going
Feel I'm slowing 

 down.
G------
D--2---
A--2---
E--0---

Sent by Andrew Shepherd (s6496pas@sun10.vsz.bme.hu).