SOUNDGARDEN

Rhinosaur

Tuning (low to high): DADGBE

1X intro:

|---------------
|---------8p10--
|---8p10--------
|---------------

4X Fig.1 /slight distortion/ with 1X Riff A
G|--------------------------------------------------------
D|-----------------------8p10---------------------8p10----
A|--10---10-10--8--8p10--------10---10---8--8p10----------
D|--10---10-10--8--------------10---10---8----------------

Riff A /slight distortion with echo/
 E|-----------------------------0---0----------
 B|--8----------------10---10-----------1------
 G|----10----0----0----------------------------
 D|--------------------------------------------
 A|--------------------------------------------
 D|--------------------------------------------
 The echo:
 left echo > right echo
  0.8...0.85 sec

4X Fig.1A /slight distortion/
Standing with my enemies
Hung on my horns
With haste and reverie
Killing with charm
G|--------------------------------------------------------
D|-----------------------8p10---------------------8p10----
A|--10\------------8p10--------10---10---8--8p10----------
D|--10\------------------------10---10---8----------------

3X Fig.2
Only happy when you hurt
Only deadly in a swarm
Only healthy in the dirt
G|------------------------------------------------------
D|----3---3-3----2---2-2----1---1-1-0--3/5--5-5-5-------
A|------------------------------------------------------
D|----3---3-3----2---2-2----1---1-1-0--3/5--5-5-5-------
1X Fig.2A
Only empty in your arms
G|--------------------------------------------------
D|----3---3-3----2---2-2----1---1-1-0---------8p10--
A|--------------------------------------8p10--------
D|----3---3-3----2---2-2----1---1-1-0---------------

4X Fig.1 with these lyrics:
 I play, I'm sick and tame
 Drawing the hordes
 I wait, and show the lame
 The meaning of harm
4X Fig.1A with these lyrics:
 The skulls beneath my feet
 Like feathers in sand
 I graze among the graves
 A feeling of peace

2X Fig.2 /distortion/ with these lyrics:
 Only bending when you break
 Only feeding when you're cold
1X Fig.2B /distortion/
Only healing when you ache
E|------------------------------------------------------
B|----6---6-6----5---5-5----4---4-4-3--6/8--8-8-8-------
G|------------------------------------------------------
D|----3---3-3----2---2-2----1---1-1-0--3/5--5-5-5-------
A|------------------------------------------------------
D|----3---3-3----2---2-2----1---1-1-0--3/5--5-5-5-------
1X Fig.2C /distortion/
Only feeling when you don't
E|--------------------------------------------
B|----6---6-6----5---5-5----4---4-4-3---------
G|--------------------------------------------
D|----3---3-3----2---2-2----1---1-1-0---------
A|--------------------------------------------
D|----3---3-3----2---2-2----1---1-1-0---------

SOLO PART: 17X Fig.3/distortion/
E|----------------------------------------------------
B|----------------------------------------------------
G|----------------------------------------------------
D|--15--17-17--15-17-17--15p17h15---------------------
A|------------------------------------------15p17-----
D|----------------------------------15p17-------------

3X Fig.2 /distortion/ with these lyrics:
 Only bending when you break
 Only feeding when you're cold
 Only healing when you ache
1X Fig.2A /distortion/ with these lyrics:
 Only feeling when you don't

4X Fig.1A ending:
G|----------
D|----------
A|---10\----
D|---10\----

(Music: Cameron; Lyrics: Cornell)

Sent by Andrew Shepherd (s6496pas@sun10.vsz.bme.hu).