SOUNDGARDEN

Overfloater

Tuning (low to high): DGDGBE

Fig.1: /very slight distortion/

G------------------------------------------------------
D------------------------------------------------------
G--7--10^----7------10^---7--10--7--12--10--7----------
D--0--0------0---0---0----0---0--0---0---0--0--0-------

7X Fig.1
Come on in and take me on an override
Been stuck inside and up all night at Dave's
Now trouble's far away, and mother in her cage
And nothings gonna pinch this nerve of mine

I wanna make it right
2X Riff A /slight distotion doubled by clean/
G--5---     G--------------------------------------------------------
D--5---     D--5-7-7\5/7--5/7--5/10----5/7-7\5/7--5/7--5-0-----------
G--5---     G--5/7-7\5/7--5/7--5/10----5/7-7\5/7--5/7--5-0-----------
D------     D--------------------------------------------------------

Riff B /clear/
G--------5---------
D----7-------------
G------------------
D------------------

8X (Fig.1 with Riff B)
Close the door and pull the shades
And climb the walls
Feel medicine heal the lines of age
I'm here and now I'm gone
I'm there and far beyond
And nothing's gonna pinch this nerve of mine
Nothing's gonna pinch this nerve of mine
Nothing's gonna pinch this nerve of mine

I wanna make it right

2X Riff A

3X Fig.2 /distortion/ :

I'm on the wire over and higher
Over the pretense over the (spire) why
On and connected I'm overfloating now
G--7-7-10-10/12-12-------7-7--10-10--7-7--5-5--5----
D--7-7-10-10/12-12-------7-7--10-10--7-7--5-5--5----
G--7-7-10-10/12-12-------7-7--10-10--7-7--5-5--5----
D---------------------------------------------------

3X Fig.2b
I'm overfloating alone
G--7-7--10-10--7-7--5-5--5----
D--7-7--10-10--7-7--5-5--5----
G--7-7--10-10--7-7--5-5--5----
D-----------------------------

3X Riff C /distortion/:
G-----------12-----------11---------
D-----------------------------------
G--14-14-14-----14-14-14------------
D-----------------------------------

12X Fig.1 with these lyrics:
...
Hold the potion up
Tear your shadow down
Remember to forget and then rename your shame

2X Riff A
I wanna make it right
2X Riff A1 /distotion/
I wanna make it right
G--------------------------------------------------------
D--5-7-7\5/7--5/7--5/10----5/7-7\5/7--5/7--5-0-----------
G--5/7-7\5/7--5/7--5/10----5/7-7\5/7--5/7--5-0-----------
D--5/7-7\5/7--5/7--5/10----5/7-7\5/7--5/7--5-0-----------

3X Fig.2:
I'm on the wire over and higher
Over the pretense over the (spire) why
On and connected I'm overfloating now

3X fig.2b:
I'm overfloating alone

1X Riff C

(Music/Lyrics: Cornell)

Sent by Andrew Shepherd (s6496pas@sun10.vsz.bme.hu).