SOUNDGARDEN

No Attention

Tuning (low to high): DADGBE
Key:
    h - hammer on
    p - pull off
    b - bend
    r - release
    / - slide up 
    \ - slide down
    ~ - vibrato

1X Fig.1 /distortion/
 G------------------------------------------------------------------------
 D----------------------------------------x--x----------------------------
 A--14-14-12-9--12-12-10-7--14-14-12-9----x--x--14-14-12-9--12-12-10-7----
 D--14-14-12-9--12-12-10-7--14-14-12-9----x--x--14-14-12-9--12-12-10-7----
  
G----------------------- D-----------------x--x-- A---14-14-12-7----x--x-- D---14-14-12-7----x--x--

2X Fig.1 with these lyrics:
 I've got war on my mind blood on my hands
 And love on my head
 So open your hands open your mouth
 Let it be said
 You know I've got it mad in my mind
 Don't waste my time it's not going to change
 So say what you want spit it out loud
 Into my face

1X Fig.2 /distortion doubled by wah/
And I'll pay no attention
And I'll pay no attention
E--------------------------------------------------
B--------------------------------------------------
G--------------------------------------------------
D--------7-----7--7p9----------7-----7---7p9-------
A-0-7p9-----9-----------0-7p9-----9----------------
D--------------------------------------------------

1X Fig.2A /distortion doubled by wah/
And I'll pay no attention
And I'll pay no attention
E--------------------------------------------------
B--------------------------------------------------
G--------------------------------------------------
D--------7-----7--7p9----------7-----7---7b--------
A-0-7p9-----9-----------0-7p9-----9----------------
D--------------------------------------------------

1X Fig.1 /distortion/ 2X Fig.1 with these lyrics:
 They're gonna tell you where to walk
 When to smile and just what to say
 They say have your own fun
 Make your own mind
 And don't make no waves
 But if you got a handful of change
 Don't throw it away it's gonna come
 So say what you want, suck all my
 Suck on my brain

1X Fig.2 /distortion doubled by wah/
And I'll pay no attention
And I'll pay no attention

1X Fig.2A /distortion doubled by wah/
And I'll pay no attention
And I'll pay no attention

1X Fig.2 /distortion doubled by wah/
And I'll pay no attention
And I'll pay no attention
 

1X Fig.2 /guitar1: distortion/
 And I'll pay no attention
 And I'll pay no attention
 |E--------------------------------------------------
 |B--------------------------------------7b--7b--7b--
 |G------------------------------7---9---------------
 |D--------7-----7--7p9-------9----------------------
 |A-0-7p9-----9--------------------------------------
 |D--------------------------------------------------
 |
 | /guitar2: distortion with wah/
 |E---------------------------------------------------
 |B---------------------------7--7b--7b--7b--7b--7b---
 |G-----------------------7-9-------------------------
 |D--------7-----7--7p9-9-----------------------------
 |A-0-7p9-----9---------------------------------------
 |D---------------------------------------------------

1X Fig.3 /heavy distortion/
And I'll pay no attention
no attention
no attention
no attention
no attention
no attention                                         Let ring...
E----------------------------------------------------------------
B----------------------------------------------------------------
G----------------------------------------------------------------
D--9--x-9\---9--x-9\---9--x-9\---9--x-9\---9--x-9\---9-----------
A--9--x-9\---9--x-9\---9--x-9\---9--x-9\---9--x-9\---9-----------
D--9--x-9\---9--x-9\---9--x-9\---9--x-9\---9--x-9\---9-----------

3X Riff A /distortion/
 let ring.........................................
E---------------------------------------------------
B---9-----------------------------------------------
G---9-b-10-r-9-b-10-r-9-b-10-r-9-b-10-r-9-b-10-r-9--
D---------------------------------------------------
A---------------------------------------------------
D---------------------------------------------------

1X Riff B /distortion/
E---------------------------------------------------------------
B----------------------7-----7-----9b10r9--7---9b10r9-7---------
G----------------------7-----7-----9b11r9--7---9b11r9-7---------
D--7-9-9-9-9-9-9-9--9-----9-----9-------------------------------
A---------------------------------------------------------------
D---------------------------------------------------------------

1X Riff C /guitar1: distortion/
 |E---------------------------------------------------------------
 |B----------------------7-----7-----9b10--9--7-------------------
 |G----------------------7-----7-----------------7----------------
 |D--7-9-9-9-9-9-9-9--9-----9-----9-----------------9--7----------
 |A---------------------------------------------------------------
 |D---------------------------------------------------------------
 |
 | /guitar2: slight distortion/
 |E---------------------------------------------------------------
 |B---------------------------------------------------------------
 |G---------------------------------------------------------------
 |D---------------------------------------------------------------
 |A----------------------------------7/----------7/---------------
 |D----------------------------------7/----------7/---------------

1X Riff D /guitar1: distortion/ with Fig.4 /guitar2: slight distortion/
E--------------------------7b9--7--5--------10b12--10---7----------------7~~~
B-------------------10----------------7--------------------10---7---10-------
G------8-----8---------------------------------------------------------------
D---9-----9------------------------------------------------------------------
A----------------------------------------------------------------------------
D----------------------------------------------------------------------------
Fig.4 /slight ditortion/:
     Q  E Q  E E E  Q  E Q  E E E      Q  E  Q E  E E	                                                           
  G-------------------------------------------------------------------------
  D-------------------------------------------------------------------------
  A--9--7-9--7-9-7--9--7-9--7-9-7-----/12\9/12\9-12-9---/12\9/12\9-12-9-----
  D--9--7-9--7-9-7--9--7-9--7-9-7-----/12\9/12\9-12-9---/12\9/12\9-12-9-----
   Q - quarter note, E - eight note
1X Riff E /distortion/:
E--(7)~~~~~~~~~~~~-----------------------------------------------------------
B----------------------------------------------------------------------------
G----------------------------------------------------------------------------
D----------------------------------------------------------------------------
A---7b9r7----7-0------------7b9r7----7-0-------------7b9r7----7-0------------
D-------------------7--5--------------------7--5---------------------7--5----

1X Fig.2 /distortion doubled by wah/
And I'll pay no attention
And I'll pay no attention

1X Fig.2B /distortion doubled by wah/
And I'll pay no attention
And I'll pay no attention
E------------------------------------------------------
B------------------------------------------------7b----
G------------------------------------------------------
D--------7-----7--7p9----------7-----7---7b------------
A-0-7p9-----9-----------0-7p9-----9--------------------
D------------------------------------------------------

1X Fig.3 /heavy distortion/
And I'll pay no attention
no attention
no attention
no attention
no attention
no attention
no attention
no attention                                                      Let ring...
E----------------------------------------------------------------------------
B----------------------------------------------------------------------------
G----------------------------------------------------------------------------
D--9--x-9\---9--x-9\---9--x-9\---9--x-9\---9--x-9\---9--x-9\---9--x-9\---9---
A--9--x-9\---9--x-9\---9--x-9\---9--x-9\---9--x-9\---9--x-9\---9--x-9\---9---
D--9--x-9\---9--x-9\---9--x-9\---9--x-9\---9--x-9\---9--x-9\---9--x-9\---9---

Slowing down:

1X Fig.1 /distortion/

2X Fig.1 with these lyrics:

 They're gonna tell you where to walk
 When to smile and just what to say
 They say have your own fun
 Make your own mind
 And don't make no waves
 But if you got a handful of change
 Don't throw it away it's gonna come
 So say what you want, suck all my
 Suck on my brain

4X Fig.1A /distortion/
And I'll pay no attention
And I'll pay no attention
And I'll pay no attention
And I'll pay no attention
And I'll pay no attention
And I'll pay no attention
And I'll pay no attention
And I'll pay no attention                   let ring till end...........
E------------------------------------------------------14------14-------
B------------------------------------------------------15------15-------
G------------------------------------------------------14------14-------
D-----------------------------------------------------------------------
A--14-14-12-9--12-12-10-7---9--7--5---7-7-5-2--0------------------------
D--14-14-12-9--12-12-10-7---9--7--5---7-7-5-2--0------------------------
(Music/Lyrics: Cornell)

Sent by Andrew Shepherd (s6496pas@sun10.vsz.bme.hu).