SOUNDGARDEN

Never Named

Tuning (low to high): DGDGBE

3X Fig.1 /distortion/

I had a dog 
he was a mix
He loved me like a God
E-----------------------------------------------
B-----------------------------------------------
G------------------------------5-5-5-5-5-5------
D------------------------------5-5-5-5-5-5------
G---5--5--3---x-x-3--4---5-5-5-5-5-5-5-5-5------
D-----------------------------------------------

1X Fig.1A with these lyrics:
   But I was just a kid
     /guitar1: distortion/ 
  |E--------------------------------------------------------------------------
  |B--------------------------------------------------------------------------
  |G--------------------------8---9---10-----------10-10-10-10-10-10-10-10----
  |D--------------------------8---9---10-----------10-10-10-10-10-10-10-10----
  |G---5--5--3---x-x-0--------8---9---10-----------10-10-10-10-10-10-10-10----
  |D--------------------------------------------------------------------------
  | 
  | /guitar2: distortion with wah/
  |                  <<<<<<<<   
  |E--------------------------------------------------------------------------
  |B--------------------------------------------------------------------------
  |G-----------------0--------8---9---10-----------10-10-10-10-10-10-10-10----
  |D-----------------0--------8---9---10-----------10-10-10-10-10-10-10-10----
  |G-----------------0--------8---9---10-----------10-10-10-10-10-10-10-10----
  |D--------------------------------------------------------------------------

1X Fig.1 with these lyrics:
The kind mother likes

2X Fig.2 /distortion/:
Now I'm big like the sky
And I'm down sized inside
E----------------------------------------------------
B----------------------------------------------------
G---8----5-5-5--7----3-3-3--0--3--5-5-5-5-5-5-5-5----
D---8----5-5-5--7----3-3-3--0--3--5-5-5-5-5-5-5-5----
G---8----5-5-5--7----3-3-3--0--3--5-5-5-5-5-5-5-5----
D----------------------------------------------------

2X Fig.3 /distortion/
I'll put this all to rest
I'm just a baby who looks like a boy
E------------------------------------
B------------------------------------
G--10---8---7---5-----8----5---------
D--10---8---7---5-----8----5---------
G--10---8---7---5-----8----5---------
D------------------------------------

1X Riff A /distortion/
E------------------
B------------------
G--------3---------
D--------3---------
G--0--2--3---------
D------------------

2X Fig.3 with these lyrics:
I'm getting all depressed
I'm just a baby who looks like a boy

1X Riff A1 /distortion/
E---------------------
B---------------------
G--------3------------
D--------3------------
G--0--2--3------5-----
D---------------3-----


3X Fig.1 with these lyrics:
I got my father's sense
And my big brother's pants
And I look like a man

1X Fig.1A with these lyrics:
And I feel like an ant

1X Fig.1 with these lyrics:
Just a speck on the ground

2X Fig.2 with these lyrics:
Growing like a weed
A fleck of a seed

2X Fig.3 with these lyrics:
I'll put my hand in flames
I'm just a baby who looks like a boy

1X Riff A

2X Fig.3 with these lyrics:

Feels like I'm born again
I'm just a baby who looks like a boy

1X Riff A1

1X Fig.1

4X Riff B /distortion/

E------------------------
B------------------------
G---10-------9----8------
D---10---8---9----8------
G------------------------
D------------------------

1X Riff C /distortion/
E------------------------------------------------------------------------
B------------------------------------------------------------------------
G----0-------------------8---9---10-----------10-10-10-10-10-10-10-10----
D----0-------------------8---9---10-----------10-10-10-10-10-10-10-10----
G----0-------------------8---9---10-----------10-10-10-10-10-10-10-10----
D-------------------------------------------------------------------------

3X Fig.4 /distortion/
I'll put this all to rest
I'm just a baby who looks like a boy
I'm getting all depressed
E----------------------------------------------------------------
B----------------------------------------------------------------
G---10---8---7--------------------------5-5-5-5-5-5-5-5-5-5-5-5--
D---10---8---7--------------------------5-5-5-5-5-5-5-5-5-5-5-5--
G---10---8---7---5--5--3---x-x--3---4---5-5-5-5-5-5-5-5-5-5-5-5--
D----------------------------------------------------------------

2X Fig.3 with these lyrics:
I'm just a baby who looks like a boy
I'm just a baby who looks like a boy
1X Riff A1

5X Riff D /distortion/

And I'll keep hanging from your hair
And I'll keep playing in the sand
E--------------------------------------------------
B--------------------------------------------------
G---10--x-x----------9--x---8--x-x-x-x-x-x-x-x-----
D---10--x-x--8--x-x--9--x---8--x-x-x-x-x-x-x-x-----
G--------------------------------------------------
D--------------------------------------------------

1X Riff E /distortion/
Just as long as I can
E-------------------------------------------------------
B-------------------------------------------------------
G---10--x-x----------9----------------------------------
D---10--x-x--8--x-x--9----------------------------------
G------------------------------8-----8------------------
D---------------------------9-----9-----9--------10\----

(Music: Shepherd; Lyrics: Cornell)

Sent by Andrew Shepherd (s6496pas@sun10.vsz.bme.hu).