SOUNDGARDEN

Dusty

Tuning (low to high): DGDGBE

1X Intro riff: /slight distortion doubled by accoustic/

E-----------------------------------------------
B-----------------------------------------------
G----4-3--4-3--4-3--4-3--4-3p0--0--0------------
D----4-3--4-3--4-3--4-3--4-3p0--0--0------------
G----4-3--4-3--4-3--4-3--4-3p0--0--0------------
D-----------------------------------------------

2X Fig.1: /slight distortion doubled by acoustic/
E--------------------------------------------
B--------------------------------------------
G--0-4-3--4-3--4-3--4-3--4-3p0--0--0---------
D--0-4-3--4-3--4-3--4-3--4-3p0--0--0---------
G--0-4-3--4-3--4-3--4-3--4-3p0--0--0---------
D--------------------------------------------

Riff A /clean/
E----------------------------
B----------------------------
G-----------0--0-------------
D-------0--------------------
G---0------------------------
D----------------------------

4X Fig.2:/clean/ with Riff A
E-----------------------------------------------
B-----------------------------------------------
G--4p5-5-4-5-0------4p5--4p5--0-----------------
D--4p5-5-4-5-0------4p5--4p5--0-----------------
G--4p5-5-4-5-0------4p5--4p5--0-----------------
D-----------------------------------------------

8X Fig.2: /clean/ + Riff A with these lyrics:
 I think it's turning back around
 And I think I like it
 I think it's turning back around
 Though I don't know why it is
 I think it's turning back on me
 I'm down on the upside
 I think it's turning back on me
 Now I'm the good ride

1X Fig.3: /slight distortion doubled by accoustic/
And nothing's gonna put me out
E------------------------------------------
B--------------------------13--------------
G-------9-10--10--10--10---12-0-5--5--5--5-
D-------9-10--10--10--10------0-5--5--5--5-
G---0---9-10--10--10--10--------5--5--5--5-
D------------------------------------------

1X Fig.1

1X Fig.3A: /slight distortion doubled by accoustic/

 It's backing down and under
 I'm down on the upside now
E-----------------------------------------
B-------------------------13--------------
G--------10--10--10--10---12-0-5--5--5--5-
D--------10--10--10--10------0-5--5--5--5-
G--------10--10--10--10--------5--5--5--5-
D-----------------------------------------

2X Fig.1 with these lyrics:
 It's turning back around
 Turning back around

2X Fig.2: /clean/ with Riff A

8X Fig.2: /clean/ with these lyrics:

 I think it's coming on the wind
 Just like you said it
 I think it's coming on the wind
 And I'm gonna let it
 I think it's turning back on me
 Everything's easy
 I think it's turning back on me
 Everything's real to me

1X Fig.3: /slight distortion doubled by accoustic/
And nothing's gonna put me out

1X Fig.1

1X Fig.3A with these lyrics:

 It's backing down and under
 I'm down on the upside now

3X Fig.1 with these lyrics:
 It's turning back around
 Turning back around
 Turning back around

1X Riff B /slight distortion/
E-----------------------------------------------------------------------------
B-----------------------------------------------------------------------------
G---10p12--10p12------10------------------------------7-6-5--5--5--5--5--0----
D-----------------12------12---10-11-12------7-8-9----7-6-5--5--5--5--5--0----
G-----------------------------------------------------7-6-5--5--5--5--5--0----
D-----------------------------------------------------------------------------

1X Riff B1 /slight distortion/
E-------------------------------------------------------------------------
B-------------------------------------------------------------------------
G---10p12--10p12------10------------------------------7-6-5--5--5--5--5---
D-----------------12------12---10-11-12------7-8-9----7-6-5--5--5--5--5---
G-----------------------------------------------------7-6-5--5--5--5--5---
D-------------------------------------------------------------------------

2X Fig.1

4X Fig.2: /clean/ with Riff A

4X Fig.2: /clean/ with these lyrics:

 I think it's coming on the wind
 Just like you said it
 I think it's coming on the wind
 And I'm gonna let it

1X Fig.3: /slight distortion doubled by accoustic/
 And nothing's gonna put me out
1X Fig.1

1X Fig.3A with these lyrics:

 It's backing down and under
 I'm down on the upside now
7X Fig.1 with these lyrics:
 It's turning back around
 Turning back around
 Turning back around
 Turning back around
 Turning back around
 Turning back around
 Turning back around

1X Fig.4 /slight distortion doubled by accoustic/:
E-----------------------------------------------
B-----------------------------------------------
G------10-----10\5-------0----------------------
D------10-----10\5-------0----------------------
G---0--10-----10\5-------0----------------------
D-----------------------------------------------

2X (Riff C with Fig.4)
E----10-----------------------------------------------------------------
B--------13-------------------------------------------------------------
G------------12--10--12--10--12---------------------7--5--5-----0-------
D------------------------------------------7--5--5--------5-----0-------
G---------------------------------------------------------------0-------
D-----------------------------------------------------------------------

Sent by Andrew Shepherd (s6496pas@sun10.vsz.bme.hu).