SOUNDGARDEN

Boot Camp

Tuning (low to high): DADGBE
Key:
    r - release
    b - bend
    / - slide up
    \ - slide down

1X Main riff /chorus with wah/
E|----------0----------0-----0----------0----0-----------0---0----------------
B|------3-----3--1-------------3--1-------------3--1------------3--1------1---
G|----2-------------2----------------2----------------2---------------2---0---
D|-----------------------0------------------------------------------------2---
A|-0----------------------------------------------------------------------3---
D|-0--------------------------------------------------------------------------


E|----0---------------------------------------0-------------------------------
B|-1-----3--1--3----4--4---4--3-----3--3---3-----3--1-------4----4--3-----3---
G|-0----------------3--3---------5-----2----------------2---3----------5------
D|------------------5------------------0--------------------5-----------------
A|----------------------------------------------------------------------------
D|----------------------------------------------------------------------------

                                               end of Main riff
E|---------------------------1-----0--1--0--1--0--1--0--1------
B|-4--4---4--3--1--3--4---3--3-----3--3--3--3--3--3--3--3------
G|-1----------------------3--3---------------------------------
D|-1-----------------------------------------------------------
A|-------------------------------------------------------------
D|-------------------------------------------------------------


1X (Riff A /chorus doubled by slight distortion/ with Main Riff with Riff B) Riff A:
  E|---------
  B|---------
  G|---------
  D|---------
  A|----0----
  D|----0----

Riff B:
  E|---------------------------------------------------------------------------
  B|---------------------------------------------------------------11/13-13----
  G|--9b10------------10r9--7--7\5--5/8--8\7---10\8---8/10---------------------
  D|---------------------------------------------------------------------------
  A|---------------------------------------------------------------------------
  D|---------------------------------------------------------------------------

Riff C
E|------------------
B|--10------13------
G|------------------
D|------------------
A|------------------
D|------------------

1X (Main riff with Riff A with Riff C) with these lyrics:
 I must obey the rules
 I must be tame and cool
 No staring at the clouds
 I must stay on the ground
 In clusters of the mice
 The smoke is in our eyes
 Like babies on display
 Like angels in a cage
 I must be pure and true
 I must contain my views

1X Fig.1 /chorus with wah/ with 1X Riff A with these lyrics:
There must be something else
There must be something good
E|----------0----------0-----0--------------
B|------3-----3--1-------------3--1---------
G|----2-------------2----------------2------
D|-----------------------0------------------
A|-0----------------------------------------
D|-0----------------------------------------

2X Fig.2 /chorus/
Far away far away from here
Far away far away from here
E|----------------------------------------------------------
B|--1-------------------------------------------------------
G|--0-------------------------------------------------------
D|--2-------------2----------------3-----------------6------
A|--3-------------2----------------3-----------------6------
D|----------------2----------------3-----------------6------

2X Fig.2 /Distortion with chorus/ with these lyrics:
Far away far away from here
Far away far away from here

1X Ending riff /chorus with wah/
E|----------0----------0-----0----------0----0-----------0---0----------------
B|------3-----3--1-------------3--1-------------3--1------------3--1------1---
G|----2-------------2----------------2----------------2---------------2---0---
D|-----------------------0------------------------------------------------2---
A|-0----------------------------------------------------------------------3---
D|-0--------------------------------------------------------------------------

(Music/Lyrics: Cornell)

Sent by Andrew Shepherd (s6496pas@sun10.vsz.bme.hu).