SOUNDGARDEN

Applebite

Standard tuning: EADGBe

(Intro part)

e--------------------------------I
B-----4--------------------------I
G----------------0----------2----I
D--3----------2----------0-------I
A--------------------------------I
E--------------------------------I
Verse part is same as intro part.

(Clean Chorus)

e------------------------------------I
B------------------------------------I
G-----4--------0---------------------I
D-----------------------3---------2--I
A--4--------3-------1---------0-----I
E------------------------------------I
(Distorted Chorus)
e--------------------------I
B--------------------------I
G--4--------------------2--I
D---------5------3---------I
A--4------3------1------0--I
E---------------------------I
The layout of this song is rather easy. For the intro just play the Intro part three times, and then play the Clean Chorus. Repeat this during the verse. Upon reaching the Chorus, play the Clean chorus along with the Distorted chorus. As if you couldn't figure that out.

Sent by Dave Nailling.