SOUNDGARDEN

Slaves & Bulldozers

Drop-D tuning.
Intro Fig.
                  pre-bend
                   |---| 
e--------8-8b10--5----------|
B-------------------6b8-----|
G------------------------7--|
D---------------------------|
A---------------------------|
D--0--0---------------------|
  |----|
   P.M

Verse Fig.
e----------------------------|
B----------------------------|
G----------------------------|
D--------5-3---------------3-|
A---------------5--3--5/\/\3-|
D--0--0--------------------3-|
                      |----|
                       vib.
"Screaming" Fig.

e---------------------------------|
B---------------------------------|
G---------------------------------|
D--10-12--12---12-10-12--12-11-10-|
A--10-12--12---12-10-12--12-11-10-|
D--10-12--12---12-10-12--12-11-10-|

(NOW I KNOW WHY YOU'VE BEEN SHAKEN!!!)

So....

Chorus Fig. 1

e--------------------------|-------------------|
B--------------------------|-------------------|
G--------------------------|-------------------|
D--8-10--10---10---7-6-5-0-|-3-5--5---5---(X)--|
A--8-10--10---10---7-6-5-0-|-3-5--5---5---(X)--|
D--8-10--10---10---7-6-5-0-|-3-5--5---5---(X)--|
                                        |------|
                                        unintelligible
					notes or noise I can't 
					figure out
Bleed your heart out
There's no more rides for free
Bleed your heart out

Chorus Fig. 2

e------------------------------------------------
B------------------------------------------------
G------------------------------------------------
D--7-6-5-0-5-7--7---7-5-7--7---7-5-7--7---7-5-7--
A--7-6-5-0-5-7--7---7-5-7--7---7-5-7--7---7-5-7--
D--7-6-5-0-5-7--7---7-5-7--7---7-5-7--7---7-5-7--
                   --count change to 2/4 somewhere in here--

I said......

e----------------------------------------
B----------------------------------------
G----------------------------------------
D--7-6-5-0-3-5---5----------(5)----------
A--7-6-5-0-3-5---5----------(5)----------
D--7-6-5-0-3-5---5----------(5)----------
                          (sustained note)
And, yep, we switch back to 4/4 again somewhere

What's in is for.....
Me....

Section-between-chorus-and-next-verse fig.

e----------------------------------------------
B----------------------------------------------
G----------------------------------------------
D--0-0-----------5-3-0-------------------------
A--0-0---3tr5----5-3-0--3tr5-------------------
D--0-0---------0-5-3-0-------------------------

What's in it for me?
What's in it for me?
etc., etc.

Note: This is my favorite Soundgarden song. I transcribed the rhythm guitar, but I have no idea how the hell Kim does all the cool stuff he does throughout this song, so if you know, please transcribe it for us all!

There are probably a lot of mistakes in this, so feel free to make any corrections you deem necessary. This is only meant as a starting place for others; it is by no means an accurate, infallible interpretation!

Transcribed by Ryan from Utah.