SOUNDGARDEN

Outshined

(Based on the Cherry Lane book)

Dropped D tuning. Key of B-flat.

Start with this slide:

A||---8\-\-\--||
D||--10\-\-\--||
This is the Intro/Verse Riff (time signature is 7/4):
G||-----------------------------------||
D||o---------------------------------o||
A||o--0-0-0-3-5-3-0-3-3--6-5-3--/-/--o||
D||---0-0-0-3-5-3-0-3----6-5-3--/-/---||
The pre-chorus goes like this (now 4/4 time):
                           Play 4 times
B||---7--7--7----||--7--7--------10p0--||--8-/10-10-10---------||
G||o--7--7--7----||--7--7---9/7-------o||----------------------||
D||o-------------||-------------------o||--5--/7--7--7---------||
A||---5--5-------||--8--8--10/8--------||--------------0-------||
D||---------5----||--------------------||--------------0-------||
Now the chorus:
G||-----------------||---------------------||---------------||
D||o----------------||---------------------||---------------||
A||o--7-5-0-3--5-0--||--5-3-0-3---x-x-0-3--||--6-6-6-5-3-0--||
D||---7-5-0-3--5-0--||--5-3-0-3---x-x-0-3--||--6-6-6-5-3-0--||

G||--------------------------------||----------------------------------||
D||-------------------------------o||--10-10\--10-10\--10-10\--10-10\--||
A||-------------------------------o||--10-10\--10-10\--10-10\--10-10\--||
D||--10-0-0-10--10-0-0-10-10-0-0---||--10-10\--10-10\--10-10\--10-10\--||
                                      Outshined...
Then go back to the beginning and play it all until the chorus. Then play:
                                              Play 3 times
B||-------------------------||---------------------6-------||
G||o------------------------||--5--7-7--5-5--4-5-4-5-5-7--o||
D||o--7--5-4--4-5-4-7--5-4--||--5--5-5--5-5--5-5-5-5-5-5--o||
A||---5--5-5--5-5-5-5--5-5--||-----------------------------||
After this play the pre-chorus riff and then the chorus riff. After playing the 10-10\ part of the chorus, play that riff again but midway through.

Andreworks & Co. (HAPA).