SOUNDGARDEN

Jesus Christ Pose

Dropped D tuning. Key of B-flat.

The song starts with a funky bass sound making the main line. The guitars are making alot of feedback and noise and then play this intro:

E||-----------------------||
B||------------------4----||
G||o-------3h5p3p0-------o||
D||o---------------------o||
A||-----------------------||
D||--0--------------------||
Make sure to bend that E-flat note there!

Verse:

G||------------------------------------||
D||o----------------------------------o||
A||o----------------------------------o||
D||--0--0-0-8-8-0-0-0-8-8-8-7-8-8-8----||

G||------------------------------------||
D||o----------------------------------o||
A||o----------------------------------o||
D||--0--0-0-6-6-0-0-0-6-6-6-5-6-6-6----||
Play this right before the first verse (guitar 2), on the 6th string and use a lot of vibrato!
D|--8------------10--------6------|
Chorus 1 riff (don't forget to bend that 3rd string hard!):
E||--------------------||----------------||----------------||----------------||
B||------11-11--11-11--||--11-11--11-11--||--13-13--13-13--||--13-13--13-13--||
G||------13-13--13-13--||--13-13--13-13--||--15-15--15-15--||--15-15--15-15--||
D||--------------------||----------------||----------------||----------------||
A||--------------------||----------------||----------------||----------------||
D||--0-----------------||----------------||----------------||----------------||

E||----------------||----------------||----------------||----------------||
B||--15-15--15-15--||--15-15--15-15--||---9--9---9--9--||---9--9---9--9--||
G||--17-17--17-17--||--17-17--17-17--||--11-11--11-11--||--11-11--11-11--||
D||----------------||----------------||----------------||----------------||
Go back to the beginning riffs. When you come back to the Chorus 1 riff, play it 2 times. Then play Chorus Riff 2:
                                                          Play 4 times
G||---------------------------------||---------------------------------||
D||o--x-x-x-x-12-12--x-x-x-x-12-12--||--x-x-x-x-10-10--x-x-x-x-10-10--o||
A||o--x-x-x-x-12-12--x-x-x-x-12-12--||--x-x-x-x-10-10--x-x-x-x-10-10--o||
D||---x-x-x-x-12-12--x-x-x-x-12-12--||--x-x-x-x-10-10--x-x-x-x-10-10---||
Interlude:
A||o-----------------------------------------||
D||o--0--0-0-12-12-12-12-10-10-10-10--10-12--||

A||-----------------------------------------||
D||--0--0-0-13-13-13-13-10-10-10-10--13-12--||

                            Play 5 times
G||-------------||--R--------------------||
D||--7----------||--R--6--3--6--5--5/6--o||
A||--7----------||--R--6--3--6--5--5/6--o||
D||--7----------||--R--6--3--6--5--5/6---||
For the "It wouldn't pain me more" (last bar of interlude) the riff keeps the same rhythm, but the notes change:
A||--0--0-0-5-5-5-5-3-3-3-3--3-5--||--0--0-0-6-6-6-6-3-3-3-3--6-5--||
D||-------------------------------||-------------------------------||

                            Play 5 times
G||-------------||--R--------------------||
D||--3----------||--R--6--3--6--5--5/6--o||
A||--3----------||--R--6--3--6--5--5/6--o||
D||--3----------||--R--6--3--6--5--5/6---||
Andreworks & Co. (HAPA)