SOUNDGARDEN

Drawing Flies

One of the few SG songs in normal tuning. This tune is mostly in 6/4 time except for some occasional changes to 4/4.

Intro (6/4):

G||--7-------8\--||
D||--7-------8\--||
A||--5-------6\--||
E||--------------||
Riff 1 (6/4):
A||-----------------------------------||
E||--3-0-0-0-0--3-0-0--6\5-0---0-0-0--||
Riff 2 (4/4):
A||-----------------5--9-|--9--7----------7\--||
E||--3-0-0-0-0--5h7----7-|--7--5----------5\--||
Riff 3 (4/4):
A||------------------5--|----7-------||
E||--3-0-0-0-0--0--4----|--6---------||
Riff 4 (6/4):
G||--------------------7---7-7-7-7--||
D||--------------------7---7-7-7-7--||
A||--------------------5---5-5-5-5--||
E||--3-0-0-0-0---0--0---------------||
Well, there are the only riffs in the song. The order is as follows:
Intro X 5
Riff 1 X 7
Riff 2
Riff 1 X 5
Riff 2 X 3
Riff 3 X 8
Riff 2 X 3
Riff 1
Intro X 5
Pause for 9 bars (verse with no guitar)
Riff 4 X Infinitum and fade

Basically, that's all there is to the song.

Andreworks & Co. (HAPA)