SOUNDGARDEN

Face Pollution

Intro:
|--0--0-0--0-0----0--0--0--0----| Play 2 measures 
|--5--5-5--5-5----5--5--5--5----|
|-------------------------------|
|-------------------------------|
|-------------------------------|
|-------------------------------|
Verse (this is played through the verse except for the "I don't feel like feelin'" part):
|-------------------------------|
|-------------------------------|
|-------------------------------|
|--8--8---7--7---6--6--6--------|
|--8--8---7--7---6--6--6--------|
|--6--6---5--5---4--4--4--------|
After the first part of the verse, 4-3-2 is played on the second string in the background until the end.

Break: First the intro is played again, then he plays some scales with a trumpet in the background.

I'm not sure about this part, but it goes something like this:

|----------------------|-------------------------12-9----------|
|--7-5-----------------|-------------------12-9----------------|
|------7-5-------------|--------------9-11---------------------|
|----------7-5-7-------|---------9-11--------------------------|
|-----------------5-7--|-----9-11------------------------------|
|----------------------|--12-----------------------------------|
And so on, with the pattern varying little. This is about the first part of it, with this the rest should be easy to figure out by listening to it.

Sent by ek007@mail.microserve.net. As transcribed by Gene Kwon and the chipped blue Kramer.